Song name
# A B C D E F G H I J K L M N O P Q R S T U V W X Y Z

Breach Of Trust - Complicated tab

tune down half a step

INTRO/VERSE  
|-0--0--3---------------0--0--3--------10h12p10/5---------|
|-0--0--3---------------0--0--3------7------------7-------|
|-4--5--4--7-7-7-7/9----9--5--4------7--------------------|
|-2--5--5--7-7-7-7/9----9--5--5----7----------------------|
|----3-----5-0-5-5/7----7--3-----5------------------------|
|--------------------0~-----------------------------------|
(im sure u can figure out the strumming)

CHORUS
    X3
|-----------------------|---------------------------------|
|-----------------------|---------------------------------|
|-9/0---------------7--5|-5-5-5---7-7-7-7-----------------|
|-9/0---------------7--5|-5-5-5---7-7-7-7-----------------|
|-7/0---------------5--3|-3-3-3---5-5-5-5-----------------|
|------00000000000------|---------------------------------|
      PM..........

SECOND VERSE/ BRIDGE
|---------------------------------------------------------|
|---------------------------------------------------------|
|-x9~--x11~--x12~--x12-x14~-------------------------------|
|-x9~--x11~--x12~--x12-x14~-------------------------------|
|-x7~--x9~---x10~--x10-x12~-------------------------------|
|---------------------------------------------------------|

im still workin on the solo so i'll probly finish it later.  hope you enjoy the rest.
Tap to rate this tab
 
# A B C D E F G H I J K L M N O P Q R S T U V W X Y Z