Song name
# A B C D E F G H I J K L M N O P Q R S T U V W X Y Z

Breach Of Trust - Edge Of Summer tab

Breach Of Trust-Edge Of Summer
Tabbed By Warren.F

Intro/chorus

--------------|
--------------|
--------------|
-00--555-333--|
-00--333-333--|
-00------333--|

VERSE                                   before chorus

-----------------------------       ------------------|
-----------------------------       ------------------|
-----------------------------       ------------------|
---------101010---555-555----       -5-3333333-3333---|
-----888--8-8-8---333-333----       -3-1111111-3333---|
-----888---------------------       -----------3333---|

Chorus


--------------|
--------------|
--------------|
-00--555-333--|
-00--333-333--|
-00------333--|

Haven't quite figured out the rest of the song  but that's
it for now
Tap to rate this tab
# A B C D E F G H I J K L M N O P Q R S T U V W X Y Z