Song name
# A B C D E F G H I J K L M N O P Q R S T U V W X Y Z

Bread And Water - Worn Hands tab

-----------------------------------------------------------------------------
			Worn Hands - Bread And Water
-----------------------------------------------------------------------------



Tuning: drop D

e|---------------------------------------------------------------------------|
B|---------------------------------------------------------------------------|
G|--2--4--7------------------------------------------------------------------|
D|--2--4--7--(x4)------------------------------------------------------------|
A|--0--2--5------------------------------------------------------------------|
D|---------------------------------------------------------------------------


e|---------------------------------------------------------------------------|
B|---------------------------------------------------------------------------|
G|---------------------------------------------------------------------------|
D|--------------------4--------------------4-5-4-----------------------------|
A|--2-4-5-0-4-5---4-5---5-4-5--2-4-5-0-4-5-------7-5-4-5--(x2)---------------|
D|--------------5------------------------------------------------------------

it pretty much just repeats these 2 riffs the entire song


| /  slide up
| \  slide down
| h  hammer-on
| p  pull-off
| ~  vibrato
| +  harmonic
| x  Mute note
=======================================================================
http://www.interpunk.com/item.cfm?Item=27320&
Tap to rate this tab
 
# A B C D E F G H I J K L M N O P Q R S T U V W X Y Z