Song name
# A B C D E F G H I J K L M N O P Q R S T U V W X Y Z

Bread And Water - Ambitions tab

-----------------------------------------------------------------------------
			  Ambitions - Bread And Water
-----------------------------------------------------------------------------


Tuning: drop D

e|---------------------------------------------------------------------------|
B|---------------------------------------------------------------------------|
G|---------------------------------------------------------------------------|
D|--2--5--2--8--2--5--0--5-7-5-----------------------------------------------|
A|--2--5--2--8--2--5--0--5-7-5--(x6)-----------------------------------------|
D|--2--5--2--8--2--5--0--5-7-5-----------------------------------------------


e|---------------------------------------------------------------------------|
B|---------------------------------------------------------------------------|
G|-----5--4--------------5--7------------------------------------------------|
D|--2--5--4--0--5--4--2--5--7--0--5--7---------------------------------------|
A|--2--3--2--0--5--4--2--3--5--0--5--7--(x2)---------------------------------|
D|--2--------0--5--4--2--------0--5--7---------------------------------------


e|---------------------------------------------------------------------------|
B|---------------------------------------------------------------------------|
G|-------------------------------------5--4--------------5--7----------------|
D|--2--5--2--8--2--5--0--5-7-5------2--5--4--0--5--4--2--5--7--0--5--7-------|
A|--2--5--2--8--2--5--0--5-7-5-(x2)-2--3--2--0--5--4--2--3--5--0--5--7-(x2)--|
D|--2--5--2--8--2--5--0--5-7-5------2--------0--5--4--2--------0--5--7-------


e|---------------------------------------------------------------------------|
B|---------------------------------------------------------------------------|
G|------------6---6----------------------------------------------------------|
D|--4--7-4--7-6-7-6-2--------------------------------------------------------|
A|--4--7-4--7-4-7-4-2--(x4)---*pause for awhile then pick scrape*------------|
D|--4--7-4--7---7---2--------------------------------------------------------


e|---------------------------------------------------------------------------|
B|---------------------------------------------------------------------------|
G|-------------------------------------5--4--------------5--7----------------|
D|-2--5--2--8--2--5--0--5-7-5------2--5--4--0--5--4--2--5--7--0--5--7------2-|
A|-2--5--2--8--2--5--0--5-7-5-(x2)-2--3--2--0--5--4--2--3--5--0--5--7-(x2)-2-|
D|-2--5--2--8--2--5--0--5-7-5------2--------0--5--4--2--------0--5--7------2-



| /  slide up
| \  slide down
| h  hammer-on
| p  pull-off
| ~  vibrato
| +  harmonic
| x  Mute note
=============================================================================
Tap to rate this tab
 
# A B C D E F G H I J K L M N O P Q R S T U V W X Y Z