Song name
# A B C D E F G H I J K L M N O P Q R S T U V W X Y Z

Bread And Water - Nakedness As Insult tab

-----------------------------------------------------------------------------
	            Nakedness As Insult? - Bread And Water
-----------------------------------------------------------------------------

there's really 2 guitars in this song but im too lazy to tab both of them so i just did 
one guitar it still sounds pretty damn good

Tuning: drop D

part 1
e|-----------------------------------------------------------------------------|
B|-----------------------------------------------------------------------------|
G|--6-6-6-6-6-6-6-6-6\4-4-4/-------6-----------------2-4-/---------------------|
D|--6-6-6-6-6-6-6-6-6\4-4-4/-(x3)--6--\pick scrape\--2-4-/---------------------|
A|--4-4-4-4-4-4-4-4-4\2-2-2/-------4-----------------0-2-/---------------------|
D|-----------------------------------------------------------------------------|

part 2
e|-----------------------------------------------------------------------------|
B|-----------------------------------------------------------------------------|
G|/-13-13-13-13-13-13\9-9-9-9-9-9----------------------------------------------|
D|/-11-11-11-11-11-11\9-9-9-9-9-9-7-7-7\2-2-2/7-7-7/9-9-9/---------------------|
A|/-11-11-11-11-11-11\7-7-7-7-7-7-7-7-7\2-2-2/7-7-7/9-9-9/--(x2)---------------|
D|--------------------------------7-7-7\2-2-2/7-7-7/9-9-9/---------------------|

part 3
e|-----------------------------------------------------------------------------|
B|-----------------------------------------------------------------------------|
G|/-13-13-13-13-13-13\9-9-9-9-9-9\8/9-9\8/9-9\8/9-9\8\6\4----------------------|
D|/-11-11-11-11-11-11\9-9-9-9-9-9\6/7-7\6/7-7\6/7-7\6\4\2----------------------|
A|/-11-11-11-11-11-11\7-7-7-7-7-7\6/7-7\6/7-7\6/7-7\6\4\2----------------------|
D|-----------------------------------------------------------------------------|

part 4
e|-----------------------------------------------------------------------------|
B|-----------------------------------------------------------------------------|
G|/-13-13-13-13-13-13\9-9-9/11-11-11\8/9-9\8/9-9\8/9-9\8\6\4-------------------|
D|/-11-11-11-11-11-11\9-9-9/-9--9--9\6/7-7\6/7-7\6/7-7\6\4\2-------------------|
A|/-11-11-11-11-11-11\7-7-7/-9--9--9\6/7-7\6/7-7\6/7-7\6\4\2-------------------|
D|-----------------------------------------------------------------------------|

part 5
e|-----------------------------------------------------------------------------|
B|-----------------------------------------------------------------------------|
G|-----------------------------------------------------------------------------|
D|-4-4-4/7\6-6\2-2-2/7\6-6\4-4-4/7\6-6\2-2-2/9/11\7\4-4-4/7\6-6\2-2-2/7\6-6----|
A|-4-4-4/7\6-6\2-2-2/7\6-6\4-4-4/7\6-6\2-2-2/9/11\7\4-4-4/7\6-6\2-2-2/7\6-6----|
D|-4-4-4/7\6-6\2-2-2/7\6-6\4-4-4/7\6-6\2-2-2/9/11\7\4-4-4/7\6-6\2-2-2/7\6-6----|


e|-----------------------------------------------------------------------------|
B|-----------------------------------------------------------------------------|
G|-7-7-7-7-7-7-----------------------------------------------------------------|
D|-7-7-7-7-7-7-2-2-2/7-7/9-9---------------------------------------------------|
A|-5-5-5-5-5-5-2-2-2/7-7/9-9---------------------------------------------------|
D|-------------2-2-2/7-7/9-9---------------------------------------------------|

part 6
e|-----------------------------------------------------------------------------|
B|--------------------------------------------9-9-9----------------------------|
G|--6-6-6-6-6-6-6-6-6-8-8-8-9-9-9-9-9-9-9-9-9-------6-6-6-6-6-6-6-6-6-8-8-8----|
D|-----------------------------------------------------------------------------|
A|-----------------------------------------------------------------------------|
D|-----------------------------------------------------------------------------|


e|-----------------------------------------------------------------------------|
B|--------------------------------------------------------------9-7---7--------|
G|--9-9-9-8-8-8-9-9-9-8-8-8-6-4-6-8-6-8-9-8-6-8-6-4-6-4-6-8-6-8-----9---9-8----|
D|-----------------------------------------------------------------------------|
A|-----------------------------------------------------------------------------|
D|-----------------------------------------------------------------------------|


e|-----------------------------------------------------------------------------|
B|-----------------------------------------------------------------------------|
G|--6-4-6-8-6-8-9-8-9-11-9-11-------------------------6------------------------|
D|----------------------------7-7-7\2-2-2/7-7-7/9-9-9-6------------------------|
A|----------------------------7-7-7\2-2-2/7-7-7/9-9-9-4------------------------|
D|----------------------------7-7-7\2-2-2/7-7-7/9-9-9--------------------------|

part 7
e|-----------------------------------------------------------------------------|
B|-----------------------------------------------------------------------------|
G|-----------------------------------------------------------------------------|
D|--------9----9-------9----9------9----9------9----9-----7-6-7---7-6-7--------|
A|-----11---11------11---11-----11---11-----11---11----------------------------|
D|--11-----------11-----------9-----------9-----------9\7-------7--------------|


e|-----------------------------------------------------------------------------|
B|-----------------------------------------------------------------------------|
G|---------------------------------------------------------------13------------|
D|----6-----6------------------------------------6---------------11------------|
A|--7---7-7---7-(x3)-except last time end with-7---7---7-9-7-6---11------------|
D|---------------------------------------------------7---------9-11------------|

and this is the order:
part 1
part 2
part 3
part 4
part 5
part 2
part 3
part 4
part 5
part 1
part 6
part 5 (x2)
part 7

| /  slide up
| \  slide down
| h  hammer-on
| p  pull-off
| ~  vibrato
| +  harmonic
| x  Mute note
====================================================================
Tap to rate this tab
 
# A B C D E F G H I J K L M N O P Q R S T U V W X Y Z