Song name
# A B C D E F G H I J K L M N O P Q R S T U V W X Y Z

Bread - Freedom tab

 Song freedom:
 group bread:
 tab writer: Alan Cul.

  (intro)
  ----------------------------------------------------------------------|
  ----------------------------------------------------------------------|
  ----------1-----2----2------------------------------------------------|
  --6---6---1-x7--2----2---1--------------------------------------------|
  --6---6---3-----4----4---1-x7---repeat-as-needed----------------------|
  --4---4------------------3--------------------------------------------|

  (chorus)
  ----------------------------------------------------------------------|
  ----------------------------------------------------------------------|
  --------1-------------------------------------------------------------|
  ---6----1-x8--1----6-----repeat-as-needed-----------------------------|
  ---6-x8-3-----1-x8-6-x16----------------------------------------------|
  ---4----------3----4--------------------------------------------------|
Tap to rate this tab
 
# A B C D E F G H I J K L M N O P Q R S T U V W X Y Z