Song name
# A B C D E F G H I J K L M N O P Q R S T U V W X Y Z

Bread - Mother Freedom tab

 Hey guys, this is 95% right. I didn't do the ending solo. So Here you go. Bread rocks!


e|-----------------------------------------------------------------------------|
B|-----------------------------------------------------------------------------|
G|--------------------------3--3-3--5--5-5--X-X-X------------------------------|
D|-----------5--5-5--X-X-X--3--3-3--5--5-5--X-X-X--3-3-4-----------------------|  (2 TIMES)
A|-----------5--5-5--X-X-X--1--1-1--3--3-3--X-X-X--3-3-4-----------------------|
E|-----------3--3-3--X-X-X-------------------------1-1-2-----------------------|

e|-----------------------------------------------------------------------------|
B|-----------------------------------------------------------------------------|
G|--------------------------3--3-3--5--5-5--X-X-X------------------------------|
D|-----------5--5-5--X-X-X--3--3-3--5--5-5--X-X-X--3-3-4-----------------------|
A|-----------5--5-5--X-X-X--1--1-1--3--3-3--X-X-X--3-3-4-----------------------|
E|-----------3--3-3--X-X-X-------------------------1-1-2-----------------------|

            Freedom.....Keep Walkin'

e|-----------------------------------------------------------------------------|
B|-----------------------------------------------------------------------------|
G|--------------------------3--3-3--5--5-5--X-X-X------------------------------|
D|-----------5--5-5--X-X-X--3--3-3--5--5-5--X-X-X--3-3-4-----------------------|
A|-----------5--5-5--X-X-X--1--1-1--3--3-3--X-X-X--3-3-4-----------------------|
E|-----------3--3-3--X-X-X-------------------------1-1-2-----------------------|

            Freedom.....get goin'

e|-------------------------------------------------7777777---------------------|
B|-----------------------------------------------------------------------------|
G|--------------------------3--3-3--5--5-5--X-X-X------------------------------|
D|-----------5--5-5--X-X-X--3--3-3--5--5-5--X-X-X------------------------------|
A|-----------5--5-5--X-X-X--1--1-1--3--3-3--X-X-X------------------------------|
E|-----------3--3-3--X-X-X-----------------------------------------------------|

                                Keep on your toes...

e|-------------------------------------------------7^8-------------------------|
B|-----------------------------------------------------------------------------|
G|--------------------------3--3-3--5--5-5--X-X-X------------------------------|
D|-----------5--5-5--X-X-X--3--3-3--5--5-5--X-X-X------------------------------|
A|-----------5--5-5--X-X-X--1--1-1--3--3-3--X-X-X------------------------------|
E|-----------3--3-3--X-X-X-----------------------------------------------------|

e|-----------------------------------------------------------------------------|
B|-------------------------------------13b14-13b14-13b14-13b14-13b14-13b14-----|
G|------------33333333--55555555-----------------------------------------------|
D|--55555555--33333333--55555555-----------------------------------------------|
A|--55555555--11111111--33333333-----------------------------------------------|
E|--33333333-------------------------------------------------------------------|

    Heyyyyy  Tomorrow  Now don't you go     away.....

                                     Guitar 1
e|-----------------------------------------------------------------------------|
B|-----------------------------------------------------------------------------|
G|-------------33333333--55555555--7-------------------------------------------|
D|---55555555--33333333--55555555--7---10b11----8-10-8-------------------------|
A|---55555555--11111111--33333333--5--------------------10-8-10-8--------8-10--|
E|---33333333------------------------------------------------------8/10--------|

e|-----------------------------------------------------------------------------|
B|--------------------------------11-14b15-14-13-11---------------11-13/15-----|
G|---------------------10--12-12---------------------12----10-12---------------|
D|------------8-10/12-----------------------------------10---------------------|
A|-8-10-8-10-------------------------------------------------------------------|
E|-----------------------------------------------------------------------------|

e|---15----15-13---------------------------------------------------------------|
B|------15-------15-14-13------14-14----------14-------------------------------|
G|-------------------------15--------15-12-15----15-12-15-12-------------------|
D|-----------------------------------------------------------------------------|
A|------------------------------------------------------------10/12--12/15-----|
E|-----------------------------------------------------------------------------|

e|---------15-13---------------------------------------------------------------|
B|---------------15-13----13---------------------------------------------------|
G|---------------------15----15---12-------------------------------------------|
D|-----------------------------------------------------------------------------|
A|-----------------------------------------------------------------------------|
E|-----------------------------------------------------------------------------|

     Guitar 2
e|-----------------------------------------------------------------------------|
B|-----------------------------------------------------------------------------|
G|--------------------------3--3-3--5--5-5--X-X-X------------------------------|
D|-----------5--5-5--X-X-X--3--3-3--5--5-5--X-X-X--3-3-4-----------------------|  (5 TIMES)
A|-----------5--5-5--X-X-X--1--1-1--3--3-3--X-X-X--3-3-4-----------------------|
E|-----------3--3-3--X-X-X-------------------------1-1-2-----------------------|

e|---------------------------------7777-6/1------------------------------------|
B|-----------------------------------------------------------------------------|
G|--------------------------3--3-3----------5--5-5--X-X-X----------------------|
D|-----------5--5-5--X-X-X--3--3-3----------5--5-5--X-X-X--3-3-4---------------|
A|-----------5--5-5--X-X-X--1--1-1----------3--3-3--X-X-X--3-3-4---------------|
E|-----------3--3-3--X-X-X---------------------------------1-1-2---------------|

e|-----------------------------------------------------------------------------|
B|-----------------------------------------------------------------------------|
G|--------------------------3--3-3--5--5-5--X-X-X------------------------------|
D|-----------5--5-5--X-X-X--3--3-3--5--5-5--X-X-X--3-3-4-----------------------|
A|-----------5--5-5--X-X-X--1--1-1--3--3-3--X-X-X--3-3-4-----------------------|
E|-----------3--3-3--X-X-X-------------------------1-1-2-----------------------|

e|-----------------------------------------------------------------------------|
B|---------------------------------3/4-----------------------------------------|
G|--------------------------3--3-3-3/4-5--5-5--X-X-X---------------------------|
D|-----------5--5-5--X-X-X--3--3-3-----5--5-5--X-X-X--3-3-4--------------------|
A|-----------5--5-5--X-X-X--1--1-1-----3--3-3--X-X-X--3-3-4--------------------|
E|-----------3--3-3--X-X-X-------------------------1-1-2-----------------------|

e|---------------------------------------10-12-12------------------------------|
B|---------------------------------10-12---------------------------------------|
G|--------------------------3--3-3----------------5--5-5--X-X-X----------------|
D|-----------5--5-5--X-X-X--3--3-3----------------5--5-5--X-X-X--3-3-4---------|
A|-----------5--5-5--X-X-X--1--1-1----------------3--3-3--X-X-X--3-3-4---------|
E|-----------3--3-3--X-X-X---------------------------------1-1-2---------------|

e|------------------------------------------------------------------------------------|
B|----------8-10-10-------10-7----------------13b14-13b14-13b14-13b14-13b14-13b14-----|
G|-----8-10-------------3-----9-7-7-3--55555555---------------------------------------|
D|--55---------------5--3-----------3--55555555---------------------------------------|
A|--55---------------5--1-----------1--33333333---------------------------------------|
E|--33---------------3----------------------------------------------------------------|

    Heyyyyy             Tomorrow  Now don't you go     away.....


e|-----------------------------------------------------------------------------|
B|-----------------------------------------------------------------------------|
G|--------------------------3--3-3--5--5-5--X-X-X------------------------------| (5 TIMES)
D|-----------5--5-5--X-X-X--3--3-3--5--5-5--X-X-X--3-3-4-----------------------|
A|-----------5--5-5--X-X-X--1--1-1--3--3-3--X-X-X--3-3-4-----------------------|
E|-----------3--3-3--X-X-X-------------------------1-1-2-----------------------|
Tap to rate this tab
 
# A B C D E F G H I J K L M N O P Q R S T U V W X Y Z