Song name
# A B C D E F G H I J K L M N O P Q R S T U V W X Y Z

Bread - Aubrey tab

INTRO: 
|-----------10------------8-7--------0--2-3--5--0-----0--2---2------------| 
|8-------0---------0----0-----8---3-----------------1-------1-------------| 
|------0---------0--------------0-----------------2--------2--------------| 
|----0---------0--------------------------------2--------0----------------| 
|10---------9--------7---------------3------------------------------------| 
|-------------------------------------------------------------------------| 

VERSE:
|----3-------5---|----3-------2---|----0-------0---|----0--------0---|
|----3-------3---|----0-------0---|----1-------1---|----1--------1---|
|--4---4---4---4-|--0---0---0---0-|--0---0---0---0-|--0---0----0---0-|
|5-------4-------|2-------0-------|----------------|---------0-------|
|----------------|----------------|3-------2-------|0----------------|
|----------------|----------------|----------------|-----------------|

|----3-------3---|----3-------2---|----2-------0---|----0--------0---|
|----0-------0---|----0-------0---|----0-------0---|----1--------1---|
|--0---0---0---0-|------0---0---0-|--0---0---0---0-|--0---0----0---0-|
|----------------|--2-----1-------|0---------------|-----------------|
|----------------|----------------|--------4-------|3--------3-------|
|3-------2-------|0---------------|----------------|-----------------|

|----3-------2---|
|----3-------3---|
|--0---0---0---0-|
|----------------|
|2-------2-------| 
|----------------|

CHORUS I:
|----0-------2---|----0-------2---|----0--------2---|
|----1-------0---|----1-------3---|----1--------0---|
|--0---0---0---0-|--0---0---0---0-|--0---0----0---0-|
|----------------|----------------|-----------------|
|0-------2-------|3-------2-------|0--------2-------|
|----------------|----------------|-----------------|

ENDING I:
|----0-------0---|----0---3---2---|
|----1-------0---|----1---1---1---|
|--0---0---0---0-|--2---2---2-----|
|----------------|0---------------|
|3-------4-------|----------------|
|----------------|----------------|

ENDING II:
|----0-------0---|----------------|
|----1-------0---|----3-----3-----|
|--0---0---0---0-|--4-----4-----4-|
|----------------|0-----0-----0---|
|3-------4-------|----------------|
|----------------|----------------|

CHORUS II:
|----------------|----------------|----------------|----3-------3---|
|----0-----0-----|----0-----0-----|--3-------3-----|--1-------1---1-|
|--2-----2-----2-|--0----------(0)|-------------(0)|----------------|
|1-----1-----1---|2-------2---2---|3---3---3---3---|2-------2-------|
|----------------|----------------|----------------|----------------|
|----------------|------0---------|------3---------|------3---------|
                                    1-E3,2-D3,3-B3   Bar 1 @ 1st fret  
|----3-------3---|                           (fingerings)
|--1-------1---1-|
|----------------|                        
|1-------1-------|
|----------------|
|------3---------|

AUBREY
CHORUS III:
|----------------|----------------|----------------|----------------|
|----0-----0-----|----0-----0-----|--3-------3-----|------------1---|
|--2-----2-----2-|--0----------(0)|-------------(0)|--0-------0---0-|
|1-----1-----1---|2-------2---2---|3----3--3---3---|2---2---2-------|
|----------------|----------------|----------------|----------------|
|----------------|------0---------|------3---------|------3---------|
					        
|----------------|----------------|  
|-(1)------------|----------------|
|----- ----------|0---------------|     
|1--(1)----1-----|0---------------|
|----------------|----------------|
|------3---------|3---------------|
Tap to rate this tab
# A B C D E F G H I J K L M N O P Q R S T U V W X Y Z