Song name
# A B C D E F G H I J K L M N O P Q R S T U V W X Y Z

Bread - Aubrey tab

-------------------------------------------|
-------------------------------------------|
---------7-4-------------------------------|
-5-5-7-5-----7-5-4-5-4-2-0-2-4-5---7-5-----|
---------------------------------7-----7-5-|
-------------------------------------------|


-----------------------------------------------------------------|
-----------------------------------------------------------------|
---9-11-12-11-9--------------------------------------------------|
-9--------------9-99-10-9-7-5-7-9-12-9-----7-444-0----7-4-2-0----|
---------------------------------------777---------777-----------|
-----------------------------------------------------------------|

------------------------------------------------------------------|
------------------------------------------------------------------|
---------------------------9-7---------------------------------12-|
-9-9-10-9-7-5--5-7-9-99-9------9-7--5-7-9----5-7-9----------------|
------------------------------------------10-------10-1010s12-----|
------------------------------------------------------------------|


mga chong ko ln 2 ha wag nio laiten kc unang tab k 2 mali 2 pero try
mukang ok nmn...........................................
Tap to rate this tab
 
# A B C D E F G H I J K L M N O P Q R S T U V W X Y Z