Song name
# A B C D E F G H I J K L M N O P Q R S T U V W X Y Z

Bread - Aubrey tab

Song Title: Aubrey
Band: Bread

Tuning: Standard (e, A, D, G, B, e)

Intro:

|-------------10----------------8-7|
|-8------8----------8--------------|
|------0----0-----0----0-----0-----|
|----------------------------------|
|-10-----------------------7-------|
|----------------------------------|


|-3--------0----0---------2-3/5----|
|---0---3-------1------------------|
|-----0------0---------------------|
|----------------------------------|
|-5--------3-------0--2------------|
|----------------------------------|


|-------0----3------2--------------|
|---------1------------------------|
|------------2------2--------------|
|----2--2-------0-------0----------|
|-0--------------------------------|
|----------------------------------|


then verse...........
Tap to rate this tab
 
# A B C D E F G H I J K L M N O P Q R S T U V W X Y Z