Song name
# A B C D E F G H I J K L M N O P Q R S T U V W X Y Z

Bread - Never Let Her Go tab

NEVER LET HER GO - BREAD
Tabbed by:AARON JAMES BODORAYA (PANDACAN MANILA)
Email: Combat_ron33@yahoo.com
Tuning:STANDARD


INTRO:
GUITAR 1
   GM7                Am                GM7                Am
e|-2---------------|-0---------------|-2---------------|-0---------------|
B|-0---------------|-1---------------|-0---------------|-1---------------|
G|-0---------------|-2---------------|-0---------------|-2---------------|
D|-0---------------|-2---------------|-0---------------|-2---------------|
A|-0---------------|-0---------------|-0---------------|-0---------------|
E|-3---------------|-x---------------|-3---------------|-x---------------|
GUITAR 2
e|-7---------------|-5----8--7--5----|-7-------------7-|-5---------------|
B|-7---------------|-5-------------8-|-7-------------7-|-5---------------|
G|-7---------------|-5---------------|-7-------------7-|-5---------------|
D|-----------------|-----------------|-----------------|-----------------|
A|-----------------|-----------------|-----------------|-----------------|
E|-----------------|-----------------|-----------------|-----------------|


VERSE 1:
   GM7                Am                GM7                Em
e|-2---------------|-0---------------|-2---------------|-0---------------|
B|-0---------------|-1---------------|-0---------------|-0---------------|
G|-0---------------|-2---------------|-0---------------|-0---------------|
D|-0---------------|-2---------------|-0---------------|-2---------------|
A|-0---------------|-0---------------|-0---------------|-2---------------|
E|-3---------------|-x---------------|-3---------------|-0---------------|
GUITAR 2
e|-7---------------|-5---------------|-7---------------|-3---------------|
B|-7---------------|-5---------------|-7---------------|-5---------------|
G|-7---------------|-5---------------|-7---------------|-4---------------|
D|-----------------|-----------------|-----------------|-----------------|
A|-----------------|-----------------|-----------------|-----------------|
E|-----------------|-----------------|-----------------|-----------------|
  EVERYBODY NEEDED SOMEONE           WAITIN TO BE THERE WHEN THINGS ARE


GUITAR 1
   D     CM7                   D/C
e|-2-------0-----------------|-2----------------|
B|-3-------0-----------------|-3----------------|
G|-2-------0-----------------|-2----------------|
D|-0-------2-----------------|-0----------------|
A|-x-------3-----------------|-3----------------|
E|-x-------x-----------------|-x----------------|
GUITAR 2
e|-2-------0---------0-------|------------------|
B|-3-------0---0--0-----0----|------------------|
G|-2-------0---------------2-|------------------|
D|-0-------------------------|-----4/5\4--2-----|
A|---------------------------|-3—---------------|
E|---------------------------|------------------|
  LOOKING DOWN                           SO


REFRAIN:

GUITAR 1
  Bm      Em    C                        Bm      Em   C 
e|-2-------0----0------------------------2-------0----0------------------|
B|-3-------0----1------------------------3-------0----1------------------|
G|-4-------0----0------------------------4-------0----0------------------|
D|-4-------2----2------------------------4-------2----2------------------|
A|-2-------2----3------------------------2-------2----3------------------|
E|-x-------0----x------------------------x-------0----x------------------|
 GUITAR 2
e|-7-------3----8------------------------7-------3----8------------------|
B|-7-------5----8------------------------7-------5----8------------------|
G|-7-------4----9------------------------7-------4----9------------------|
D|-----------------------------------------------------------------------|
A|-----------------------------------------------------------------------|
E|-----------------------------------------------------------------------|
    IF     YOU   FEEL A LITTLE LONELY       GO  OUT  FIND YOUR ONE & ONLY


 GUITAR 1
  Am          Bm        C           Em      D                D
e|-0-----------2--------0-----------0-------2----------------2-pause-----|
B|-1-----------3--------1-----------0-------3----------------3-----------|
G|-2-----------4--------0-----------0-------2----------------2-----------|
D|-2-----------4--------2-----------2-------0----------------0-----------|
A|-0-----------2--------3-----------2-------x----------------x-----------|
E|-x-----------x--------x-----------0-------x----------------x-----------|
 GUITAR 2
e|-5-----------7--------8-----------3-------2----------------2-----------|
B|-5-----------7--------8-----------5-------3----------------3-----------|
G|-5-----------7--------9-----------4-------2----------------2-----------|
D|------------------------------------------0----------------0-----------|
A|-----------------------------------------------------------------------|
E|-----------------------------------------------------------------------|
  SOMEWHERE OUT THERE SOMEONE WILL CARE FOR YOU & THEN       NEVER LET HER 


CHORUS:

 GUITAR 1
  GM7             D               GM7             D
e|-2--------------2----------------2--------------2----------------------|
B|-0--------------3----------------0--------------3----------------------|
G|-0--------------2----------------0--------------2----------------------|
D|-0--------------0----------------0--------------0----------------------|
A|-0--------------x----------------0--------------x----------------------|
E|-3--------------x----------------3--------------x----------------------|
 GUITAR 2
e|-2-------------------------------2----0-0-0-0/2-0----------------------|
B|-3----0-0-0-0/1-0----------------3-------------------------------------|
G|-4-------------------------------4-------------------------------------|
D|-5-------------------------------5-------------------------------------|
A|-----------------------------------------------------------------------|
E|-----------------------------------------------------------------------|
   GO                NEVER LET HER GO


2ND VERSE:
   GM7                Am                GM7                Em
e|-2---------------|-0---------------|-2---------------|-0---------------|
B|-0---------------|-1---------------|-0---------------|-0---------------|
G|-0---------------|-2---------------|-0---------------|-0---------------|
D|-0---------------|-2---------------|-0---------------|-2---------------|
A|-0---------------|-0---------------|-0---------------|-2---------------|
E|-3---------------|-x---------------|-3---------------|-0---------------|
GUITAR 2
e|-7---------------|-5---------------|-7---------------|-3---------------|
B|-7---------------|-5---------------|-7---------------|-5---------------|
G|-7---------------|-5---------------|-7---------------|-4---------------|
D|-----------------|-----------------|-----------------|-----------------|
A|-----------------|-----------------|-----------------|-----------------|
E|-----------------|-----------------|-----------------|-----------------|
  YOU MAY WONDER HOW YOU KNOW LOVE    WHEN THE MOMENT CAME THAT YOU’VE BEEN

 GUITAR 1
   D     CM7                   D/C
e|-2-------0-----------------|-2----------------|
B|-3-------0-----------------|-3----------------|
G|-2-------0-----------------|-2----------------|
D|-0-------2-----------------|-0----------------|
A|-x-------3-----------------|-3----------------|
E|-x-------x-----------------|-x----------------|
GUITAR 2
e|-2-------0-----1-1-0---0---|------------------|
B|-3-------0-----------3---1-|------------------|
G|-2-------0-----------------|------------------|
D|-0-------------------------|-----4/5\4--2-----|
A|---------------------------|-3—---------------|
E|---------------------------|------------------|
   DREAMIN OF…..                                

REFRAIN 2:
(SAME CHORDS AS REFRAIN 1)
 Bm        Em     C
WILL TRUE LOVE TAKES A LITTLE LONGER
Bm      Em      C
YOUR HEART BEATS A LITTLE STRONGER
Am             Bm
YOU KNOW IT’S REAL 
C             Em
INSIDE YOU FEEL 
       D 
YOU’RE HOME AT LAST

AND NEVER LET HER….  (REPEAT CHORUS)

ADLIB:
     GM7                         Am
e|------------------------------------------------------------|
B|------------------------------------------------------------|
G|-------------7-7---7-9--------------------------------------|
D|-------5-7/9-----9-----7h9-9p7--7-7h9p7-5-----5-------------|
A|---5/7------------------------------------5h7---------------|
E|-7----------------------------------------------------------|

    GM7               Em              D                 GM7
e|--------------------------------------12~--12-12\10---------|
B|-------------8/10-8---8-10-10/12\10-8---------------10-10^^-|
G|-----7-7---7--------9---------------------------------------|
D|-7/9-----9--------------------------------------------------|
A|------------------------------------------------------------|
E|------------------------------------------------------------|

        D/C
e|----------------------|
B|-10-8----8-8h10-------|
G|------11--------9-----|
D|----------------------|
A|----------------------|
E|----------------------|

3RD VERSE: 
Bm     Em    C
SO IF YOU FEEL A LITTLE LONELY
Bm    Em     C
GO OUT FIND YOUR ONE & ONLY 
Am         Bm
OPEN YOUR HEART 
C           Em
GIVE HER A START
      D
AND WATCH IT GROW     



NEVER LET HER ….

GUITAR 1
  GM7             D               GM7             D
e|-2--------------2----------------2--------------2----------------------|
B|-0--------------3----------------0--------------3----------------------|
G|-0--------------2----------------0--------------2----------------------|
D|-0--------------0----------------0--------------0----------------------|
A|-0--------------x----------------0--------------x----------------------|
E|-3--------------x----------------3--------------x----------------------|
 GUITAR 2
e|-2-------------------------------2----0-0-0-0/2-0----------------------|
B|-3----0-0-0-0/1-0----------------3-------------------------------------|
G|-4-------------------------------4-------------------------------------|
D|-5-------------------------------5-------------------------------------|
A|-----------------------------------------------------------------------|
E|-----------------------------------------------------------------------|
   GO                NEVER LET HER GO


                        <<<<<<>>>>>>



| /  slide up
| \  slide down
| h  hammer-on
| p  pull-off
| ~  vibrato
| ^^ full whole note
| x  Mute note

Tap to rate this tab
 
# A B C D E F G H I J K L M N O P Q R S T U V W X Y Z