Song name
# A B C D E F G H I J K L M N O P Q R S T U V W X Y Z

Break Co-op - The Otherside tab

Highlighted       Show chord diagrams
Official website - http://www.breaksco-op.co.uk/


Intro:

E ----------------------------------------------------------------------|
B -------0h1p0---------------------------0h1p0------------1-------------|
G -0--0--------0----------0------0--0-0--------0------------0-----0-----|
D -0--0----------0----0h2---2-------0-0----------0-2-0h2----------------|
A -2---------------3----------3-----2--------------3-----------3--------|
E -3--------------------------------3-----------------------------------| X2

E ---------------------------------|
B -3--0h1p0------------------------|
G -3--------0----------------0-----|
D -3----------0---2--0h2-----------|
A -1--------------3-------3--------|
E ---------------------------------|


G      C    G     C            G      C
He was born to be tender,      Going through your life

         Bb          C
You must be the only one


G     C       G    C            G       C
But I see so many like you     Take my word for it

     Bb                 F        G
They feel the same they feel the same


CHORUS

   F                     C                    G
So take my hand and I'll lead you back to the otherside

    F               C                G
Get yourself into a better place and live your life

          F                C            G
Hold your head up high and dont rely on anyone else

        F             C        G
Make it easier on yourself and dont ask why

Verse 2

G          C    G    C          G       C
There have been many changes,   Flowing through your life

C                 Bb             C
But you learn to look the other way

G     C    G              C             G   
   C
But I know that there's a better way,   Take my word for it

       Bb                    F        G
You'll feel the same, you'll feel the same


CHORUS


Bridge -  Bb   F   C  x2
          Bb   F   G  x4

G                 C         G      C             
     F
Hold your head up high      on the otherside

G                 C         G      C             
     F
Hold your head up high      on the otherside

G                 C         G      C             
     F
Hold your head up high      on the otherside

G                 C         G      C             
     F
Hold your head up high      on the otherside

This is my frist tab so please e-mail me corrections What a great tune!!!!!!!!!!!!!!!!!!!!!!!!!!!!!!!

Tab by The Ridler
Tap to rate this tab
 
# A B C D E F G H I J K L M N O P Q R S T U V W X Y Z