Song name
# A B C D E F G H I J K L M N O P Q R S T U V W X Y Z

Breakdown Of Sanity - Prologue tab

Song by Breakdown of Sanity
Tab by Dr. Br00tz

Intro

Guitar 1 & 2
B|-------------------------------------------------------------|
G|-------------------------------------------------------------|
D|-------------------------------------------------------------|
A|-------------------------------------------------------------|
E|-------------------------------------------------------------|
A|-------------------------------------------------------------|

Dr0p

Guitar 1 (Listen to song fer strumming pattern)
B|-------------------------------------------------------------|
G|-------------------------------------------------------------|
D|-------------------------------------------------------------|
A|-------------------------------------------------------------|
E|-0-0-0-0-0-0-0-0-0-0-0-0-0-0-0-0-0-0-0-0-0-0-0-0-0-0-0-0-0-0-|
A|-0-0-0-0-0-0-0-0-0-0-0-0-0-0-0-0-0-0-0-0-0-0-0-0-0-0-0-0-0-0-|

Guitar 2 comes in at 0.55 on stoodio vershun
B|-8-----------------------------------------------------------|
G|---6------(repeat)-------------------------------------------|
D|-----9-------------------------------------------------------|
A|-------------------------------------------------------------|
E|-------------------------------------------------------------|
A|-------------------------------------------------------------|

Thanks guyz!
email me at drt0tezbr00tz@gmail.com if you get stuck.
Tap to rate this tab
# A B C D E F G H I J K L M N O P Q R S T U V W X Y Z