Song name
# A B C D E F G H I J K L M N O P Q R S T U V W X Y Z

Breaking Benjamin - Skin tab

Artist: Breaking Benjamin
Song: Skin
Album: Saturate
Tabbed By: Adam Seto

NOTE TO THE PEOPLE THAT POST TABS: This whole tab didn't fit on the page. Do if you post
tab, please make it fit. (Don't Post thids message!)
_________________________________________________________________________________________

Intro:

Guitar 1

Eb|-------------------------------------|
Bb|-------------------------------------|
Gb|-------------------------------------|
Db|-0-0-x-x-0-0-0-7-7-5-5-x-x-5-5-5-8-8-| x2
Ab|-0-0-x-x-0-0-0-7-7-5-5-x-x-5-5-5-8-8-|
Db|-0-0-x-x-0-0-0-7-7-5-5-x-x-5-5-5-8-8-|

Eb|-----------------------------------------------------------------------------|
Bb|-----------------------------------------------------------------------------|
Gb|-----------------------------------------------------------------------------|
Db|----12-11h12-14-12-11h12-----12-11h12-15-12-11-------12-11h12-14-12-11h12----|
Ab|-12-----------------------10-------------------13-12----------------------10-|
Db|-----------------------------------------------------------------------------|

Guitar 2

Eb|--------------------------------------------|
Bb|--------------------10-10-9-9-----9-9-9-----|
Gb|-11-11-----11-11-11-9--9--7-7-----7-7-7-----|
Db|-x--x--x-x-x--x--x--7--7--5-5-x-x-5-5-5-8-8-| x4
Ab|-9--9--x-x-9--9--9--7--7--5-5-x-x-5-5-5-8-8-|
Db|-0--0--x-x-0--0--0--7--7--5-5-x-x-5-5-5-8-8-|
_________________________________________________________________________________________

Verse:

Guitar 1 (Play 3 1st ending 3 times and the use 2nd ending on 4th time)

                         1st ending
Eb|------------------|----------------|
Bb|------------------|----------------|
Gb|------------------|----------------|
Db|--0-0-0-0-0-0-0-7-|-5-5-5-5-5-5-8--| x4
Ab|--0-0-0-0-0-0-0-7-|-5-5-5-5-5-5-8--|
Db|--0-0-0-0-0-0-0-7-|-5-5-5-5-5-5-8--|
p.m..................................

Guitar 2 (Play 3 1st ending 3 times and the use 2nd ending on 4th time)

                                      1st ending
Eb|---------------------------|-----------------------|
Bb|---------------------------|-----------------------|
Gb|--11-11-11-11-11-11--14-14-|-12-12-12-12-12-12--15-|
Db|--x--x--x--x--x--x---x--x--|-x--x--x--x--x--x---x--| x2
Ab|--9--9--9--9--9--9---12-12-|-10-10-10-10-10-10--13-|
Db|---------------------------|-----------------------|
p.m..................................................

Guitar 1

    2nd ending
Eb|-------------------|
Bb|-------------------|
Gb|-------------------|
Db|-5-5-5-5-7-7-7-7---|
Ab|-5-5-5-5-7-7-7-7---|
Db|-5-5-5-5-7-7-7-7---|

Guitar 2

          2nd ending
Eb|--------------------------|
Bb|--------------------------|
Gb|--14-14-14-14-16-16-16-16-|
Db|--x--x--x--x--x--x--x--x--| (NO PALM MUTE)
Ab|--12-12-12-12-14-14-14-14-|
Db|--------------------------|
_________________________________________________________________________________________

Pre Chorus:

Guitar 1 and 2

Eb|---------------------------------|
Bb|---------------------------------|
Gb|-----6-7-----6-7----6-7-----6-7--|
Db|-9-9-----7-7-----5-5----5-5------|
Ab|-9-9-----7-7-----5-5----5-5------|
Db|-9-9-----7-7-----5-5----5-5------|

Eb|------------------------------------|
Bb|-----5-7-----5-7-------5-7------5-7-|
Gb|-----6-7-----6-7-------6-7------6-7-|
Db|-9-9-----7-7-------5-5------5-5-----|
Ab|-9-9-----7-7-------5-5------5-5-----|
Db|-9-9-----7-7-------5-5------5-5-----|
_________________________________________________________________________________________

Chorus:

Guitar 2

Eb|---------------------------------|
Bb|---------------------------------|
Gb|---------9-9-9-9-7-7-7-7-7-7-7-7-|
Db|-0-0-0-0-7-7-7-7-5-5-5-5-5-5-5-5-|
Ab|-0-0-0-0-7-7-7-7-5-5-5-5-5-5-5-5-|
Db|-0-0-0-0-7-7-7-7-5-5-5-5-5-5-5-5-|

Guitar 2 (played with guitar 1)

Eb|----------|
Bb|-7-8-10-8-|
Gb|----------|
Db|----------|
Ab|----------|
Db|----------|

Guitar 1 and 2

Eb|----------------------------------|
Bb|-5-5-5-5-5-5-8-8-8-8-8------------|
Gb|-4-4-4-4-4-4-7-7-7-7-7-5*----5*---|
Db|-2-2-2-2-2-2-5-5-5-5-5----4*----4*|
Ab|-2-2-2-2-2-2-5-5-5-5-5------------|
Db|-2-2-2-2-2-2-5-5-5-5-5------------|
_______________________________________________________________________________________

Intro:

Guitar 1

Eb|-------------------------------------|
Bb|-------------------------------------|
Gb|-------------------------------------|
Db|-0-0-x-x-0-0-0-7-7-5-5-x-x-5-5-5-8-8-| x2
Ab|-0-0-x-x-0-0-0-7-7-5-5-x-x-5-5-5-8-8-|
Db|-0-0-x-x-0-0-0-7-7-5-5-x-x-5-5-5-8-8-|

Guitar 2

Eb|------------------------------------------|
Bb|------------------------------------------|
Gb|-11-11-----11-11-11-9-9-7-7-----7-7-7-----|
Db|-x--x--x-x-x--x--x--7-7-5-5-x-x-5-5-5-8-8-| x2
Ab|-9--9--x-x-9--9--9--7-7-5-5-x-x-5-5-5-8-8-|
Db|-0--0--x-x-0--0--0--7-7-5-5-x-x-5-5-5-8-8-|
_________________________________________________________________________________________

Verse:

Guitar 1 (Play 3 1st ending 3 times and the use 2nd ending on 4th time)

                         1st ending
Eb|------------------|----------------|
Bb|------------------|----------------|
Gb|------------------|----------------|
Db|--0-0-0-0-0-0-0-7-|-5-5-5-5-5-5-8--| x4
Ab|--0-0-0-0-0-0-0-7-|-5-5-5-5-5-5-8--|
Db|--0-0-0-0-0-0-0-7-|-5-5-5-5-5-5-8--|
p.m..................................

Guitar 2 (Play 3 1st ending 3 times and the use 2nd ending on 4th time)

                                      1st ending
Eb|---------------------------|-----------------------|
Bb|---------------------------|-----------------------|
Gb|--11-11-11-11-11-11--14-14-|-12-12-12-12-12-12--15-|
Db|--x--x--x--x--x--x---x--x--|-x--x--x--x--x--x---x--| x2
Ab|--9--9--9--9--9--9---12-12-|-10-10-10-10-10-10--13-|
Db|---------------------------|-----------------------|
p.m..................................................

Guitar 1

    2nd ending
Eb|-------------------|
Bb|-------------------|
Gb|-------------------|
Db|-5-5-5-5-7-7-7-7---|
Ab|-5-5-5-5-7-7-7-7---|
Db|-5-5-5-5-7-7-7-7---|

Guitar 2

          2nd ending
Eb|--------------------------|
Bb|--------------------------|
Gb|--14-14-14-14-16-16-16-16-|
Db|--x--x--x--x--x--x--x--x--|
Ab|--12-12-12-12-14-14-14-14-|
Db|--------------------------|
_________________________________________________________________________________________

Pre Chorus:

Guitar 1 and 2

Eb|---------------------------------|
Bb|---------------------------------|
Gb|-----6-7-----6-7----6-7-----6-7--|
Db|-9-9-----7-7-----5-5----5-5------|
Ab|-9-9-----7-7-----5-5----5-5------|
Db|-9-9-----7-7-----5-5----5-5------|

Eb|------------------------------------|
Bb|-----5-7-----5-7-------5-7------5-7-|
Gb|-----6-7-----6-7-------6-7------6-7-|
Db|-9-9-----7-7-------5-5------5-5-----|
Ab|-9-9-----7-7-------5-5------5-5-----|
Db|-9-9-----7-7-------5-5------5-5-----|
_________________________________________________________________________________________

Guitar 2

Eb|---------------------------------|
Bb|---------------------------------|
Gb|---------9-9-9-9-7-7-7-7-7-7-7-7-|
Db|-0-0-0-0-7-7-7-7-5-5-5-5-5-5-5-5-|
Ab|-0-0-0-0-7-7-7-7-5-5-5-5-5-5-5-5-|
Db|-0-0-0-0-7-7-7-7-5-5-5-5-5-5-5-5-|

Guitar 2 (played with guitar 1)

Eb|----------|
Bb|-7-8-10-8-|
Gb|----------|
Db|----------|
Ab|----------|
Db|----------|

Guitar 1 and 2

Eb|----------------------------------|
Bb|-5-5-5-5-5-5-8-8-8-8-8------------|
Gb|-4-4-4-4-4-4-7-7-7-7-7-5*----5*---|
Db|-2-2-2-2-2-2-5-5-5-5-5----4*----4*|
Ab|-2-2-2-2-2-2-5-5-5-5-5------------|
Db|-2-2-2-2-2-2-5-5-5-5-5------------|
_________________________________________________________________________________________

Bridge:

Guitar 2 (Strum each octave fast)

Eb|---------------------------|
Bb|---------------------------|
Gb|-11--14-12-15-14-18-19--21-|
Db|--x--x---x--x--x-x---x--x--| x2 (Bend last octave on 2nd time through)
Ab|--9--12-10-13-12-16-17--19-|
Db|---------------------------|

Guitar 1 (plays with guitar 2)

Eb|-------------------------------------|
Bb|-------------------------------------|
Gb|-------------------------------------|
Db|-0-0-x-x-0-0-0-7-7-5-5-x-x-5-5-5-8-8-|
Ab|-0-0-x-x-0-0-0-7-7-5-5-x-x-5-5-5-8-8-|
Db|-0-0-x-x-0-0-0-7-7-5-5-x-x-5-5-5-8-8-|
_________________________________________________________________________________________

Pre Chorus:

Guitar 1 and 2

Eb|---------------------------------|
Bb|---------------------------------|
Gb|-----6-7-----6-7----6-7-----6-7--|
Db|-9-9-----7-7-----5-5----5-5------|
Ab|-9-9-----7-7-----5-5----5-5------|
Db|-9-9-----7-7-----5-5----5-5------|

Eb|------------------------------------|
Bb|-----5-7-----5-7-------5-7------5-7-|
Gb|-----6-7-----6-7-------6-7------6-7-|
Db|-9-9-----7-7-------5-5------5-5-----|
Ab|-9-9-----7-7-------5-5------5-5-----|
Db|-9-9-----7-7-------5-5------5-5-----|
_________________________________________________________________________________________

Chorus: Play Whole Chorus 2 times here

Guitar 2

Eb|---------------------------------|
Bb|---------------------------------|
Gb|---------9-9-9-9-7-7-7-7-7-7-7-7-|
Db|-0-0-0-0-7-7-7-7-5-5-5-5-5-5-5-5-|
Ab|-0-0-0-0-7-7-7-7-5-5-5-5-5-5-5-5-|
Db|-0-0-0-0-7-7-7-7-5-5-5-5-5-5-5-5-|

Guitar 2 (played with guitar 1)

Eb|----------|
Bb|-7-8-10-8-|
Gb|----------|
Db|----------|
Ab|----------|
Db|----------|

_______________________________________________________________________________________

Guitar 1 and 2

Eb|-----------|
Bb|-5~-----8~-|
Gb|-4~-----7~-|
Db|-2~-----5~-|
Ab|-2~-----5~-|
Db|-2~-----5~-|
_________________________________________________________________________________________

END

LEGEND:


*      Harmonic

p.m.   Palm Mute

~      Vibrato

x      Full Mute

Check Out my Other Breaking Benjamin tabs!:

-Who Wants to Live Forever.......4 stars

-Polyamorous (ver. 8).......5 stars

-Home (ver. 3)........NOT RATED!!!

-Inertia (ver. 2)..........NOT RATED!!!
Tap to rate this tab
# A B C D E F G H I J K L M N O P Q R S T U V W X Y Z