Guitaretab - guitar tabs
Song name
# A B C D E F G H I J K L M N O P Q R S T U V W X Y Z

Breaking Benjamin - Away tab

Song:  Away
Band:  Breaking Benjamin
Album: We Are Not Alone (2004)
Tabbed By: Adam Seto

Intro:

D|--------------------------------------------------------------------------|
A|--------------------------------------------------------------------------|
F|--------------------------------------------------------------------------|
G|---------6-6-6---------6-6-6--3--1--------------------------------3--1----|
G|------------------------------3--1---------6-6-6-----------6-6-6--3--1----|
C|--3-3-3---------3-3-3---------3--1--3-3-3---------3-3-3-----------3--1----|


D|--------------------------------------------------------------------------|
A|--------------------------------------------------------------------------|
F|--------------------------------------------------------------------------|
C|------------------------------3--1--------------------------------3--6----| x 2
G|---------4-4-4---------4-4-4--3--1---------6-6-6-----------6-6-6--3--6----|
C|--3-3-3---------3-3-3---------3--1--3-3-3---------3-3-3-----------3--6----|

Guitar 2 (Wah)

D|----------------------------------------------------|
A|----------------------------------------------------|
F|--8--10~--10b--10~--10b--10~--10b--10~--10b--10~----|
C|----------------------------------------------------|
G|----------------------------------------------------|
C|----------------------------------------------------|

Verse:

D|----------------------------------------------------------------------------|
A|----------------------------------------------------------------------------|
F|----------------------------------------------------------------------------|
C|----------------------------------------------------------------------------| x
G|-----------------------------------------4-----4-----------6-----6----------|
C|--3--6--3--6--3--1--3--1--3--1--3--1--3-----3-----3--1--3-----3-----3--6----|
p.m...........................................................................

Pre-Chorus:

D|--------------------------------------------------------------------------|
A|--------------------------------------------------------------------------|
F|--------------------------------------------------------------------------|
C|---------6-6-6---------6-6-6--3--1--------------------------------3--1----|
G|------------------------------3--1---------6-6-6-----------6-6-6--3--1----|
C|--3-3-3---------3-3-3---------3--1--3-3-3---------3-3-3-----------3--1----|
p.m......      p.m.....            p.m.....      p.m.....

D|--------------------------------------------------------------------------|
A|--------------------------------------------------------------------------|
F|--------------------------------------------------------------------------|
C|------------------------------3--1--------------------------------3--6----| x 2
G|---------4-4-4---------4-4-4--3--1---------6-6-6-----------6-6-6--3--6----|
C|--3-3-3---------3-3-3---------3--1--3-3-3---------3-3-3-----------3--6----|
p.m......      p.m.....


Chorus:

D|-------------------------------|
A|-------------------------------|
F|--6--6--6--6--6-----------5----|
C|--6--6--6--6--6--6--6--4--5----| x 4
G|--4--4--4--4--4--6--6--4--3----|
C|-----------------6--6--4-------|

[ Tab from: http://www.guitaretab.com/b/breaking-benjamin/131767.html ]
Verse:

D|----------------------------------------------------------------------------|
A|----------------------------------------------------------------------------|
F|----------------------------------------------------------------------------|
C|----------------------------------------------------------------------------| x
G|-----------------------------------------4-----4-----------6-----6----------|
C|--3--6--3--6--3--1--3--1--3--1--3--1--3-----3-----3--1--3-----3-----3--6----|
p.m...........................................................................

Pre-Chorus:

D|--------------------------------------------------------------------------|
A|--------------------------------------------------------------------------|
F|--------------------------------------------------------------------------|
C|---------6-6-6---------6-6-6--3--1--------------------------------3--1----|
G|------------------------------3--1---------6-6-6-----------6-6-6--3--1----|
C|--3-3-3---------3-3-3---------3--1--3-3-3---------3-3-3-----------3--1----|
p.m......      p.m.....            p.m.....      p.m.....

D|--------------------------------------------------------------------------|
A|--------------------------------------------------------------------------|
F|--------------------------------------------------------------------------|
C|------------------------------3--1--------------------------------3--6----| x 2
G|---------4-4-4---------4-4-4--3--1---------6-6-6-----------6-6-6--3--6----|
C|--3-3-3---------3-3-3---------3--1--3-3-3---------3-3-3-----------3--6----|
p.m......      p.m.....


Chorus:

D|-------------------------------|
A|-------------------------------|
F|--6--6--6--6--6-----------5----|
C|--6--6--6--6--6--6--6--4--5----| x 4
G|--4--4--4--4--4--6--6--4--3----|
C|-----------------6--6--4-------|

Bridge:

D|-------------------------------------------------------------|
A|-------------------------------------------------------------|
F|-------------------------------------------------------------|
C|------------------------x--x--x------------------------------| x 3
G|------------------------x--x--x------------------------------|
C|--3--1--3--6~--3--1--3--x--x--x--3--1--3--6~--3--1--6--1~----|

Solo:

D|------16--15--16------16--15--16------16--15------------------|
A|--18--18--18--18--18--18--18--18--18--18--18------------------|
F|--17--17--17--20--17--17--17--17--17--17--17--20--22b--22b----|
C|--------------------------------------------------------------| x 2
G|--------------------------------------------------------------|
C|--------------------------------------------------------------|

Chorus:

D|-------------------------------|
A|-------------------------------|
F|--6--6--6--6--6-----------5----|
C|--6--6--6--6--6--6--6--4--5----| x 4
G|--4--4--4--4--4--6--6--4--3----|
C|-----------------6--6--4-------|

D|---------------------------------------------------|
A|---------------------------------------------------|
F|------------------------6--------------------------|
C|--3--3--3--6~--3--1--3--6---6--6--6--4--4--1--3----| x 4
G|--3--3--3--6~--3--1--3--4---6--6--6--4--4--1--3----|
C|--3--3--3--6~--3--1--3------6--6--6--4--4--1--3----|
p.m. Palm Mute
b    Bend
Related for Away tab
Advertisement will be closed in 10 seconds