Song name
# A B C D E F G H I J K L M N O P Q R S T U V W X Y Z

Breaking Benjamin - Firefly tab

Help us improve GuitareTab! Take a short survey!
----------------------------------------------------------------------------
			     Firefly - Breaking Benjamin
----------------------------------------------------------------------------
Tabbed by:CrosseGod18
Email:crossegod@yahoo.com

Tuning:CGCFAD

Guitar 1: Ben Burnley (MY HERO!!)
Guitar 2: Aaron Fincke

Despite the fact that there are many guitars in this song there are few times when they
playing different things, this tab will specifically cover the main two guitar because
are probably around 4 or 5 dubbed into this song.

Intro: Both guitars with heavy distortion

The 0's here are not palm muted just cut short so it doesn't sound sloppy!!
D|-------------------------------------------------------------------------|
A|-------------------------------------------------------------------------|
F|-------------------------------------------------------------------------|
C|-------------------------------------------------------------------------|
G|-10-0--0--0-10-0--0--0-10-0--0--3-0--0--0-10-0--0--0-10-0--0-------------|
C|-10-0--0--0-10-0--0--0-10-0--0--3-0--0--0-10-0--0--0-10-0--0-------------|

D|---------------------------------------------------14--------------------|
A|----------------------------------------------------X--------------------|
F|---------------------------------------------------11--------------------|
C|-------------------------------------------------------------------------|
G|-10-0--0--0-10-0--0--0-10-0--0--3-0--0--0-10-0--0------------------------|
C|-10-0--0--0-10-0--0--0-10-0--0--3-0--0--0-10-0--0------------------------|

D|-------------------------------------------------------------------------|
A|-------------------------------------------------------------------------|
F|-------------------------------------------------------------------------|
C|-------------------------------------------------------------------------|
G|-10-0--0--0-10-0--0--0-10-0--0--3-0--0--0-10-0--0--0---------------------|
C|-10-0--0--0-10-0--0--0-10-0--0--3-0--0--0-10-0--0--0--10h12-10p0---------|

D|-------------------------------------------------------------------------|
A|-------------------------------------------------------------------------|
F|-------------------------------------------------------------------------|
C|-------------------------------------------------------------------------|
G|-10-0--0--0-10-0--0--0-10-0--0--3-0--0--0-10-0--0--0-10-12\--------------|
C|-10-0--0--0-10-0--0--0-10-0--0--3-0--0--0-10-0--0--0-10-12\--------------|

Verse:
Clean w/phaser

D|------------------------|--------------------------|---------------------|
A|------------------------|--------------------------|---------------------|
F|-------0------------0---|-------0-------------0----|---------0-----------|
C|---4-------4-----4----4-|---4--------4-----4-----4-|----4--------4-----4-|
G|-2---2---2---2----------|-0---0----0-----0---------|---------------------|
C|------------------------|--------------------------|-4--------------4----|

D|----------------------|--------------------|-----------------------------|
A|----------------------|--------------------|-----------------------------|
F|--------0-------------|--------0-----------|--------0--------------------|
C|----4------4----------|----4------4------4-|----4--------4---------4-----|
G|--------------------4-|-2-------------2----|-0-----------------0---------|
C|-5--------------5-----|--------------------|-----------------------------|

D|------------------------|------------------------------------------------|
A|------------------------|------------------------------------------------|
F|---------0--------------|-------------0----------------------------------|
C|----4---------4-------4-|------4-------------4---------------------------|
G|------------------------|---------------------------Phaser Off-----------|
C|-4----------------4-----|-5----------------------------------------------|

Chorus:
Guitars 1&2

D|-------------------------------|-----------------------------------------|
A|-------------------------------|-10---------------10---------------------|
F|-11---11---11----11----11---11-|-9---9---------------------9-------------|
C|-X----X----X-----X-----X----X--|-7---------------------------------7-----|
G|-9----9----9-----9-----9----9--|-7---------------------------------7-----|
C|-0----0----0-----0-----0----0--|-7---------------------------------7-----|

D|------------------------|------------------------------------------------|
A|-7----------7-----------|-11---11-----11----11----11----13---13----------|
F|-7----7-----------7---7-|-10---10-----10----10----10----12---12----------|
C|-5----------------5---5-|-8----8------8-----8-----8-----10---10----------|
G|-5----------------5---5-|-8----8------8-----8-----8-----10---10----------|
C|-5----------------------|-8----8------8-----8-----8-----10---10----------|

D|----------------------------------------|--------------------------------|
A|----------------------------------------|--------------------------------|
F|-11---11-----11----11----11----11----11-|-9---9-----9----9------9----9---|
C|-X----X------X-----X-----X-----X-----X--|-X---X-----X----X------X----X---|
G|-9----9------9-----9-----9-----9-----9--|-7---7-----7----7------7----7---|
C|----------------------------------------|--------------------------------|


                                Guitar 1 (Ben)
D|---------------------------|---------------------------------------------|
A|---------------------------|---------------------------------------------|
F|-7----7---7-----7----7---7-|-10----10----10----10-----10---10\9/10-------|
C|-X----X---X-----X----X---X-|-8-----8-----8-----8------8----X-\X/X--------|
G|-5----5---5-----5----5---5-|-8-----8-----8-----8------8----8-\7/8--------|
C|---------------------------|-8-----8-----8-----8------8------------------|

                                Guitar 2 (Aaron)
                            D|---------------------------------------------|
                            A|---------------------------------------------|
                            F|-10----10----10----10-----10---10\9/10-------|
                            C|-X-----X-----X-----X------X----X-\X/X--------|
                            G|-8-----8-----8-----8------8----8-\7/8--------|
                            C|---------------------------------------------|

D|-------------------------------------------------------------------------|
A|-------------------------------------------------------------------------|
F|-------------------------------------------------------------------------|
C|-------------------------------------------------------------------------|
G|-10-0---0---0-10-0--0--0-10-0---0--0--3-0--0--0-10-0--0--0--10-12\-------|
C|-10-0---0---0-10-0--0--0-10-0---0--0--3-0--0--0-10-0--0--0--10-12\-------|

 Verse and Chorus Again

Bridge:


Guitar 1 (Ben)
Bring me your enemies....
D|------------------------------------------|
A|------------------------------------------|
F|-11-X--11---X---11---X---11---X--11/12\11-|X2
C|-11-X--11---X---11---X---11---X---X/X-\X--|
G|-9--X--9----X---9----X---9----X---9/10\9--|
C|-9--X--9----X---9----X---9----X-----------|

D|------------------------------------------|
A|------------------------------------------|
F|-7---X---7---X---7---X---7---X---11/12\11-|
C|-7---X---7---X---7---X---7---X---X-/X-\X--|X2
G|-5---X---5---X---5---X---5---X---9-/10\9--|
C|-5---X---5---X---5---X---5---X------------|

D|------------------------------------------|
A|------------------------------------------|
F|-11---9----7------------------------------|
C|-11---9----7------------------------------|
G|-9----7----5------------------------------|
C|-9----7----5----5/19--22--19\-------------|

D|-------------------------------------------------|
A|-------------------------------------------------|
F|-11--11------9---9-----7---7---14--14--14--------|
C|-11--11------9---9-----7---7---X---X---X---------|
G|-9---9-------7---7-----5---5---12--12--12--------|
C|-9---9-------7---7-----5---5-----------------21\-|

D|--------------------------------|
A|--------------------------------|
F|-11---9----7----------------7---|
C|-11---9----7----------------7---|
G|-9----7----5----------------5---|
C|-9----7----5---5--5--5--5---5---|
                PM----------------|

Guitar 2 (Aaron)
D|------------------------------------------|
A|------------------------------------------|
F|-11-X--11---X---11---X---11---X---7/9\7---|X2
C|-11-X--11---X---11---X---11---X---X/X\X---|
G|-9--X--9----X---9----X---9----X---5/7\5---|
C|-9--X--9----X---9----X---9----X-----------|

D|------------------------------------------|
A|---------------------------------10/12\10-|
F|-7---X---7---X---7---X---7---X---X-/X-\X--|
C|-7---X---7---X---7---X---7---X---7-/9-\7--|X2
G|-5---X---5---X---5---X---5---X------------|
C|-5---X---5---X---5---X---5---X------------|

D|------------------------------------------|
A|------------------7~----------------------|
F|-11---9----7------9~----------------------|
C|-11---9----7------------------------------|
G|-9----7----5------------------------------|
C|-9----7----5------------------------------|

D|-------------------------------------------------|
A|------------------------------------------12~----|
F|-11--11------9---9-----7---7--------------14~----|
C|-11--11------9---9-----7---7---------------------|
G|-9---9-------7---7-----5---5---------------------|
C|-9---9-------7---7-----5---5---------------------|

D|--------------------------------|
A|--------------------------------|
F|-11---9----7----------------7---|
C|-11---9----7----------------7---|
G|-9----7----5----------------5---|
C|-9----7----5---5--5--5--5---5---|
                PM----------------|

Chorus: But alittle different because of the lead part coming up.

D|-------------------------------|-----------------------------------------|
A|-------------------------------|-10---------------10---------------------|
F|-11---11---11----11----11---11-|-9---9---------------------9-------------|
C|-X----X----X-----X-----X----X--|-7---------------------------------7-----|
G|-9----9----9-----9-----9----9--|-7---------------------------------7-----|
C|-0----0----0-----0-----0----0--|-7---------------------------------7-----|

D|------------------------|------------------------------------------------|
A|-7----------7-----------|-11---11-----11----11----11----13---13----------|
F|-7----7-----------7---7-|-10---10-----10----10----10----12---12----------|
C|-5----------------5---5-|-8----8------8-----8-----8-----10---10----------|
G|-5----------------5---5-|-8----8------8-----8-----8-----10---10----------|
C|-5----------------------|-8----8------8-----8-----8-----10---10----------|

D|----------------------------------------|--------------------------------|
A|----------------------------------------|--------------------------------|
F|-11---11-----11----11----11----11----11-|-9---9-----9----9------9----9---|
C|-X----X------X-----X-----X-----X-----X--|-X---X-----X----X------X----X---|
G|-9----9------9-----9-----9-----9-----9--|-7---7-----7----7------7----7---|
C|----------------------------------------|--------------------------------|


                                Guitar 1 (Ben)
D|---------------------------|---------------------------------------------|
A|---------------------------|---------------------------------------------|
F|-7----7---7-----7----7---7-|-10----10----10----10-----10---10\9/10-------|
C|-X----X---X-----X----X---X-|-8-----8-----8-----8------8----X-\X/X--------|
G|-5----5---5-----5----5---5-|-8-----8-----8-----8------8----8-\7/8--------|
C|---------------------------|-8-----8-----8-----8------8------------------|

                                Guitar 2 (Aaron)
                            D|---------------------------------------------|
                            A|---------------------------------------------|
                            F|-10----10----10----10----10---12--12--12--12-|
                            C|-X-----X-----X-----X-----X----X---X---X---X--|
                            G|-8-----8-----8-----8-----8----10--10--10--10-|
                            C|---------------------------------------------|

Bens Guitar Repeats the Chorus Twice
D|----------17----15----14--------------------|
A|-----15---------------------15--------------|
F|-14----------------------------|------------|
C|-------------------------------|X3       ---|
G|-------------------------------|         ---|
C|-------------------------------|         ---|
                                            |X2
D|-----------17----15---17--(17)-|         ---|
A|-----15------------------------|         ---|
F|-15----------------------------|         ---|
C|-------------------------------|------------|
G|--------------------------------------------|
C|--------------------------------------------|

D|-------------------------------------------------------------------------|
A|-------------------------------------------------------------------------|
F|-------------------------------------------------------------------------|
C|-------------------------------------------------------------------------|
G|-10-0--0--0-10-0--0--0-10-0--0--3-0--0--0-10-0--0--0---------------------|
C|-10-0--0--0-10-0--0--0-10-0--0--3-0--0--0-10-0--0--0--10h12-10p0---------|

D|-------------------------------------------------------------------------|
A|-------------------------------------------------------------------------|
F|-------------------------------------------------------------------------|
C|-------------------------------------------------------------------------|
G|-10-0---0---0-10-0---0---0-10-12\----------------------------------------|
C|-10-0---0---0-10-0---0---0-10-12\----------------------------------------|

Enjoy!!! Finally!!! God that took forever. Anyways please rate and comment. Just another
from your friendly neighborhood CrosseGod18. I am exstatic about the new Breaking
album and figure I would try to make sure I knew their older stuff before it came out. I
have a Burn The Priest and a Kittie tab that anyone whoose interested can check out. I
the next one I will try to figure out will be Follow since the tab for that one is a
later y`all!

| \  slide up
| /  slide down
| h  hammer-on
| p  pull-off
| ~  vibrato
| +  harmonic
| x  Mute note
| () 1/2 Bend
============================================================================
Related for Firefly tab