Song name
# A B C D E F G H I J K L M N O P Q R S T U V W X Y Z

Breaking Benjamin - Water tab

Song: Water
Band: Breaking Benjamin
Album: Saturate
Tabber: B BALL GIRL1021
Tuning: drop C#
 This is one of my favorite BB songs. The tab is close to the previous one except for a 
changes and guitar 2
Guitar 1
|------------------------|
|------------------------|
|--3p0-3p0-2---2---2---2-|
|------------0---0---0---| x3
|------------------------|
|------------------------|

Guitar 2
|------------------------|
|------------------------|
|----------2---------(2)-| x3
|----------0---------(0)-|
|----------0---------(0)-|
|----------0---------(0)-|

Guitar 1
|-----------------------|
|--3p0-3p0-2---2---3----|
|------------0--0-------|
|-----------------------|
|-----------------------|
|-----------------------|

Guitar 2
|-----------------------|
|-----------------------|
|----------2--------(2)-|
|----------0--------(0)-|
|----------0--------(0)-|
|----------0--------(0)-|

Guitars 1 & 2
|------------------------|
|------------------------|
|---------------------3—-|  x2
|-1p0-0-0-1p0-0-0-1p0-3--|
|-1p0-0-0-1p0-0-0-1p0-1--|
|-1p0-0-0-1p0-0-0-1p0----|

Guitars 1 & 2
|-------------------------|
|-------------------------|
|-(3)-------------------3-|
|-(3)-0-0-0-1p0-0-0-1p0-3-|
|-(1)-0-0-0-1p0-0-0-1p0-1-|
|-----0-0-0-1p0-0-0-1p0---|

Guitar 1 & 2
|-------------------------|
|-------------------------|
|-----------------7-6-5---|
|-1p0-0-0-1p0-0-0-7-6-5---|
|-1p0-0-0-1p0-0-0-5-4-3---|
|-1p0-0-0-1p0-0-0---------|

Guitar 1 & 2
|-----------------------|
|-----------------------|
|---------------------3-|
|-1p0-0-0-1p0-0-0-1p0-3-|
|-1p0-0-0-1p0-0-0-1p0-1-|
|-1p0-0-0-1p0-0-0-1p0---|

Guitars 1 & 2
|-------------------------|
|-------------------------|
|-(3)-------------------3-|
|-(3)-0-0-0-1p0-0-0-1p0-3-|
|-(1)-0-0-0-1p0-0-0-1p0-1-|
|-----0-0-0-1p0-0-0-1p0---|

Guitar 1
|------------------------|
|-------------------3----|
|------------------------|
|-1p0-0-0-1p0-0-0--------|
|-1p0-0-0-1p0-0-0--------|
|-1p0-0-0-1p0-0-0--------|

Guitar 2
|--------------------------|
|--------------------------|
|--------------------------|
|-1p0-0-0-1p0-0-0-0-0-0----|
|-1p0-0-0-1p0-0-0-0-0-0----|
|-1p0-0-0-1p0-0-0-0-0-0----|
P.M.              x x x

Verse 1

Guitar 1 and 2       
|--------------------------|
|---------------------3----|
|---------------------5----|
|-1-0-0-0-1-0-0-0-1-0------| x3
|-1-0-0-0-1-0-0-0-1-0------|
|-1-0-0-0-1-0-0-0-1-0------|
  x x x x x x x x x x ^
                Only guitar 2 does this

|------------------------|
|------------------------|
|---------------------3--|
|-1-0-0-0-1-0-0-0-1p0-3--|
|-1-0-0-0-1-0-0-0-1p0-1--|
|-1-0-0-0-1-0-0-0-1p0----|
  x x x x x x x      

Guitars 1 & 2
|------------------------|
|------------------------|
|---------------------3--|
|-1p0-0-0-1p0-0-0-1p0-3—-| x3
|-1p0-0-0-1p0-0-0-1p0-1--|
|-1p0-0-0-1p0-0-0-1p0----|

Guitar 1
|-------------------------|
|-------------------------|
|-------------------------|
|-1p0-0-0-1p0-0-0-1p001p0-|
|-1p0-0-0-1p0-0-0-1p001p0-|
|-1p0-0-0-1p0-0-0-1p001p0-|
                  
Guitar 2
|-------------------------|
|----------------------3--|
|-------------------------|
|-1p0-0-0-1p0-------------|
|-1p0-0-0-1p0-------------|
|-1p0-0-0-1p0-------------|

Pre-chorus

Both guitars
|-------------------------------|
|-------------------------------|
|-7-7-7-7-7-7-7-7-8-8-8-8\-3/-8-|
|-7-7-7-7-7-7-7-7-8-8-8-8\-3/-8-|
|-5-5-5-5-5-5-5-5-6-6-6-6\-1/-6-|
|-------------------------------|

Guitars 1 & 2
|------------------------|
|------------------------|
|---------------------3--|
|-1p0-0-0-1p0-0-0-1p0-3—-|
|-1p0-0-0-1p0-0-0-1p0-1--|
|-1p0-0-0-1p0-0-0-1p0----|

Guitar 1
|--------------------------|
|--------------------------|
|--------------------------|
|-1p0-0-0-1p0-0-0-1p0001p0-|
|-1p0-0-0-1p0-0-0-1p0001p0-|
|-1p0-0-0-1p0-0-0-1p0001p0-|

Guitar 2
|--------------------------|
|-----------------------3--|
|--------------------------|
|-1p0-0-0-1p0--------------|
|-1p0-0-0-1p0--------------|
|-1p0-0-0-1p0--------------|

Both guitars
|-----------------------------------|
|-----------------------------------|
|-7-7-7-7-7-7-7-7-10-10-10-10\-3/-8-|
|-7-7-7-7-7-7-7-7-10-10-10-10\-3/-8-|
|-5-5-5-5-5-5-5-5-8 -8 -8 -8 \-1/-6-|
|-----------------------------------|

Chorus
Guitars 1 & 2
|------------------------------------------------------|
|------------------------------------------------------|
|-3-3-3-3-3-3-3-3-5-5-5-5-5-5-5-5-7-7-7-7-7-7-7-7------|
|-3-3-3-3-3-3-3-3-5-5-5-5-5-5-5-5-7-7-7-7-7-7-7-7--1-3-|
|-1-1-1-1-1-1-1-1-3-3-3-3-3-3-3-3-5-5-5-5-5-5-5-5--1-3-|
|--------------------------------------------------1-3-|


Guitars 1 & 2
|----------------------------------------------------------|
|----------------------------------------------------------|
|-3-3-3-3-3-3-3-3-5-5-5-5-5-5-5-5-7-7-7-7-7-7-7-7----------|
|-3-3-3-3-3-3-3-3-5-5-5-5-5-5-5-5-7-7-7-7-7-7-7-7--1p0-1p0-|
|-1-1-1-1-1-1-1-1-3-3-3-3-3-3-3-3-5-5-5-5-5-5-5-5--1p0-1p0-|
|--------------------------------------------------1p0-1p0-|

Guitars 1 & 2
|------------------------------------------------------|
|------------------------------------------------------|
|-3-3-3-3-3-3-3-3-5-5-5-5-5-5-5-5-7-7-7-7-7-7-7-7------|
|-3-3-3-3-3-3-3-3-5-5-5-5-5-5-5-5-7-7-7-7-7-7-7-7--1-3-|
|-1-1-1-1-1-1-1-1-3-3-3-3-3-3-3-3-5-5-5-5-5-5-5-5--1-3-|
|--------------------------------------------------1-3-|


Guitars 1 & 2 let loose some harmonics on the xs
|-------------------------------------------------------|
|-------------------------------------------------------|
|-3-3-x-x-x-x-5-5-x-x-x-x-7-7-7-7-7-7-7-----------------|
|-3-3-x-x-x-x-5-5-x-x-x-x-7-7-7-7-7-7-7-6-6-6-6-6-6-6-6-|
|-1-1-x-x-x-x-3-3-x-x-x-x-5-5-5-5-5-5-5-6-6-6-6-6-6-6-6-|
|-----x-x-x-x-----x-x-x-x---------------6-6-6-6-6-6-6-6-|

“In between”
Guitars 1 & 2
|------------------------|
|------------------------|
|---------------------3--|
|-1p0-0-0-1p0-0-0-1p0-3—-|
|-1p0-0-0-1p0-0-0-1p0-1--|
|-1p0-0-0-1p0-0-0-1p0----|

Guitar 1
|-----------------------------|
|-----------------------------|
|-----------------------------|
|-1p0-0-0-1p0-0-0-1p0-0-0-1p0-|
|-1p0-0-0-1p0-0-0-1p0-0-0-1p0-|
|-1p0-0-0-1p0-0-0-1p0-0-0-1p0-|

Guitar 2
|-----------------------------|
|-----------------------3-----|
|-----------------------------|
|-1p0-0-0-1p0-----------------|
|-1p0-0-0-1p0-----------------|
|-1p0-0-0-1p0-----------------|

verse

Pre-chorus

Chorus

“2 In between”
Guitars 1 & 2
|------------------------|
|------------------------|
|---------------------3--|
|-1p0-0-0-1p0-0-0-1p0-3—-| x2
|-1p0-0-0-1p0-0-0-1p0-1--|
|-1p0-0-0-1p0-0-0-1p0----|

Guitars 1 & 2
|-------------------------|
|-------------------------|
|-(3)-------------------3-|
|-(3)-0-0-0-1p0-0-0-1p0-3-|
|-(1)-0-0-0-1p0-0-0-1p0-1-|
|-----0-0-0-1p0-0-0-1p0---|

Guitar 1
|--------------------------|
|--------------------------|
|--------------------------|
|-1p0-0-0-1p0-0-0-1p0001p0-|
|-1p0-0-0-1p0-0-0-1p0001p0-|
|-1p0-0-0-1p0-0-0-1p0001p0-|

Guitar 2
|--------------------------|
|-----------------------3--|
|--------------------------|
|-1p0-0-0-1p0--------------|
|-1p0-0-0-1p0--------------|
|-1p0-0-0-1p0--------------|

Bridge
Guitar 2
|---------------|
|---------------|
|---------------| x9 (first measure p.m.)
|---------------|
|-5-4-3-0-------|
|---------5-3-0-|

Guitar 1
|---------------|
|---------------|
|-7-6-5---------| x4 (starting on the 5th measure of guitar 2)
|-------7-6-5-0-|
|---------------|
|---------------|

Chorus

Guitars 1 & 2
|------------------------------------------------------|
|------------------------------------------------------|
|-3-3-3-3-3-3-3-3-5-5-5-5-5-5-5-5-7-7-7-7-7-7-7-7------|
|-3-3-3-3-3-3-3-3-5-5-5-5-5-5-5-5-7-7-7-7-7-7-7-7--1-3-|
|-1-1-1-1-1-1-1-1-3-3-3-3-3-3-3-3-5-5-5-5-5-5-5-5--1-3-|
|--------------------------------------------------1-3-|


Guitars 1 & 2
|----------------------------------------------------|
|----------------------------------------------------|
|-3-3-3-3-3-3-3-3-5-5-5-5-5-5-5-5-7-7-7-7\-----------|
|-3-3-3-3-3-3-3-3-5-5-5-5-5-5-5-5-7-7-7-7\---1p0-1p3-|
|-1-1-1-1-1-1-1-1-3-3-3-3-3-3-3-3-5-5-5-5\---1p0-1p3-|
|--------------------------------------------1p0-1p3-|

Guitars 1 & 2
|------------------------------------------------------|
|------------------------------------------------------|
|-3-3-3-3-3-3-3-3-5-5-5-5-5-5-5-5-7-7-7-7-7-7-7-7------|
|-3-3-3-3-3-3-3-3-5-5-5-5-5-5-5-5-7-7-7-7-7-7-7-7-1-3--|\
|-1-1-1-1-1-1-1-1-3-3-3-3-3-3-3-3-5-5-5-5-5-5-5-5-1-3--| \
|-------------------------------------------------1-3--|  \
                                                          |
                                                          |x2
Guitars 1 & 2 let loose some harmonics on the xs          |
|-------------------------------------------------------|/
|-------------------------------------------------------|
|-3-3-x-x-x-x-5-5-x-x-x-x-7-7-7-7-7-7-7-----------------|
|-3-3-x-x-x-x-5-5-x-x-x-x-7-7-7-7-7-7-7-6-6-6-6-6-6-6-6-|
|-1-1-x-x-x-x-3-3-x-x-x-x-5-5-5-5-5-5-5-6-6-6-6-6-6-6-6-|
|-----x-x-x-x-----x-x-x-x---------------6-6-6-6-6-6-6-6-|



Guitars 1 & 2
|---------------------------|
|---------------------------|
|---------------------------|
|-6-6-6-6-6-6-6-6-6-6-6-6-0-|
|-6-6-6-6-6-6-6-6-6-6-6-6-0-|
|-6-6-6-6-6-6-6-6-6-6-6-6-0-|
Tap to rate this tab
 
# A B C D E F G H I J K L M N O P Q R S T U V W X Y Z