Song name
# A B C D E F G H I J K L M N O P Q R S T U V W X Y Z

Breaking Benjamin - Who Wants To Live Forever tab

Song: Who Wants To Live Forever (cover version)
Artist: Breaking Benjamin
Tabbed By: Adam Seto
Tuning: 2 Steps Down

1...C
2...G
3...Eb
4...Bb
5...F
6...C

***This is a revised version of my previous version of this tab. My chords and tuning
messed up in the first version.

_________________________________________________________________________________________

           Am          D
There's no time for us
           Em/G        D
There's no place for us
             G                     Em                  G          D
What is this thing that builds our dreams, yet slips away from us


    C        G       Am
Who wants to live forever
    C        G       Am
Who wants to live forever
G      D
Oh ooo oh

           Am         D
There's no chance for us
           Em/G        D
It's all decided for us
               G              Em         G            D
This world has only one sweet moment set aside for us

    C        G       Am
Who wants to live forever
    C        G       Am
Who wants to live forever
G    D
Ooh

G     Em

    C        D        Am
Who dares to love forever
G       D                 Em (Dist on Em)
Oh oo woh, when love must die
_________________________________________________________________________________________

Solo :

   Gtr 1. (Distortion)
C |-----------------------------------------------|
G |------------7h8~-7--------7h8~-7h8p7-----------|
Eb|---------------------7h9---------------7h9-----|
Bb|-------------------9-----------------9---------|
F |-----------------------------------------------|
C |-----------------------------------------------|
  |
  |Gtr. 2 (Distortion)
C |-----------------------------------------|
G |-----------------------------------------|
Eb|-----------------------------------------|
Bb|--9h10p9-7h9~---9h10p9-7h9~--9h10p9-7h9~-|
F |-----------------------------------------|
C |-----------------------------------------|

   Gtr. 1
C |-----------------------------------------------------------------------|
G |--7-7-7h8~--5-7-8h10p8-10/12~------------------------------------------|
Eb|-------------------------------7-9-11b12r11b12r11~-9-------------------|
Bb|-----------------------------9-----------------------9-7-----------10--|
F |---------------------------------------------------------10-7------10--|
C |--------------------------------------------------------------10-7-8---|
  |                           p.m...                    P.m..........
  |
  |Gtr. 2 (Distortion)
C |-----------------------------------------------------------------------|
G |-----------------------------------------------------------------------|
Eb|-----------------------------------------------------------------------|
Bb|------9--9--9--------------------9--9--9---------------------------10--|
F |------7--7--7----10-10-10--------7--7--7---------------------------10--|
C |-----------------8--8--8-------------------------------------------8---|

____________________________________________________________________________

   Gtr 1. (Gtr. 2 plays upper harmony second time)
C |------------------------------------------------------------------|
G |------------------------------------------------------------------|
Eb|------4-4-2-2-----5-5-4-4-2-2-4-4-----4-4-2-2-----5-5-4-4-2-2-4-4-|
Bb|--5-5-5-5-4-4-5-5-7-7-5-5-4-4-5-5-2-2-5-5-4-4-2-2-7-7-5-5-4-4-5-5-| x2
F |--7-7---------7-7-----------------3-3---------3-3-----------------|
C |------------------------------------------------------------------|
P.m...................................................................

But touch my tears with your lips
Touch my world with your fingertips
_________________________________________________________________________________________

Gtr. 2 plays power chords while Gtr. 1 plays octaves shown

     G5   D5   E5     G5   D5   E5     C5       D5
C |----------------------------------------------------------|
G |----------------------------------------------------------|
Eb|-/12~-/14~-/16~---/12~-/14~-/16~----16-------14--------8~-|
Bb|--x----x----x------x----x----x------x--(x8)--x--(X6)---7~-|
F |-/10~-/12~-/14~---/10~-/12~-/14~----14-------12--------6~-|
C |-----------------------------------------------------7----|

And we can have forever
And we can love forever
Forever is our today
_________________________________________________________________________________________

   Gtr. 1 (chords are from gtr. 2 part. They are to help with timing)
   ***Figure out strumming for this whole section 
C |-------------------------------------------|
G |-------------------15b17-------------------|
Eb|-------------0------------16p14----14b16~--|
Bb|-5----4------2------------------17---------|
F |-5----5------2-----------------------------|
C |-3----2------0-----------------------------|
    
   Gtr.2 (x2)
C |------------------------|
G |------------------------|
Eb|------------------0-----|
Bb|-5--------4-------2-----|
F |-5--------5-------2-----|
C |-3--------2-------0-----|
Who wants to live forever

_________________________________________________________________________________________

   Gtr. 1
C |--------------------------------------------------|
G |--------------------------------------------------|
G#|--9--9--9--9--9--9--9--9--12-12-12-12-11-11---8~--|
A#|--x--x--x--x--x--x--x--x--x--x--x--x--x--x----7~--|
A |--7--7--7--7--7--7--7--7--10-10-10-10-9--9----6~--|
C |--------------------------------------------7-----|
  |
  |Gtr. 2
C |-----------------------------------------------|--------|
G |-----------------------------------------------|--------|
G#|--5--5--5--5--5--5--5--5-7--7--7--7--7--7---8~-|---9----|
A#|--5--5--5--5--5--5--5--5-7--7--7--7--7--7---7~-|---9----|
A |--3--3--3--3--3--3--3--3-5--5--5--5--5--5---6~-|---7----|
C |------------------------------------------7----|--------|

Forever is our today
Who waits forever anyway?
Tap to rate this tab
# A B C D E F G H I J K L M N O P Q R S T U V W X Y Z