Song name
# A B C D E F G H I J K L M N O P Q R S T U V W X Y Z

Breaking Benjamin - Had Enough tab

Breaking Benjamin
Had Enough
Tabbed by U B the band
Tuning Bb F Bb Eb G C

Legend
h-hammer on
p-pull off
x-scratch/don't play
()-optional
/-slide up

Intro Guitar 1 (Ben) *play once*
 C|---------------------------------------------------------------|
 G|---------------------------------------------------------------|
Eb|---------------------------------------------------------------|
Bb|--2--0-2p0-2---0-2p0--5-5-4-0---2--0-2p0-2---0-2p0--5-5-4-0----|
 F|--2--0-2p0-2---0-2p0--5-5-4-0---2--0-2p0-2---0-2p0--5-5-4-0----|
Bb|--2--0-2p0-2---0-2p0--5-5-4-0---2--0-2p0-2---0-2p0--5-5-4-0----|

Ben Guitar 1 Cont. *play once*
 C|----------------------------------------------------------------|
 G|---------------------------------------------------15-15-15-15--|
Eb|--------------------16-16-16-16--------------------16-16-16-16--|
Bb|--10-10-10h12-1010---x--x--x--x--10-10-10h12-1010---x--x--x--x--|
 F|--10-10-10h12-1010--14-14-14-14--10-10-10h12-1010--14-14-14-14--|
Bb|--10-10-10h12-1010---------------10-10-10h12-1010---------------|

Guitar 2 (Aaron) *play 2 times*                                   --|
 C|---------------------------------------------------------------| |
 G|---------------------------------------------------------------| |
Eb|---------------------------------------------------------------| |
Bb|--2--0-2p0-2---0-2p0--5-5-4-0---2--0-2p0-2---0-2p0--5-5-4-0----| |
 F|--2--0-2p0-2---0-2p0--5-5-4-0---2--0-2p0-2---0-2p0--5-5-4-0----| |
Bb|--2--0-2p0-2---0-2p0--5-5-4-0---2--0-2p0-2---0-2p0--5-5-4-0----| |
                                                                    |
Aaron Guitar 2 cont.                                                |
 C|----------------------------------------------------------------||
 G|---------------------------------------------------15-15-15-15--||
Eb|--------------------16-16-16-16--------------------16-16-16-16--||
Bb|--10-10-10h12-1010---x--x--x--x--10-10-10h12-1010---x--x--x--x--||
 F|--10-10-10h12-1010--14-14-14-14--10-10-10h12-1010--14-14-14-14--||
Bb|--10-10-10h12-1010---------------10-10-10h12-1010---------------||
                                                                  --|
Guitar 1 after 1st time
 C|---------------------------------------------------------------|
 G|--555--------888--777--55--------555--------888--777--55-------|
Eb|-------777-----------------77---------777-----------------77---|
Bb|---------------------------------------------------------------|
 F|---------------------------------------------------------------|
Bb|---------------------------------------------------------------|

Verse 1 Guitar 1
 C|-----------------------------------------|
 G|-----------------------------------------|
Eb|--9------------9--12---------------------|
Bb|--9------------9--12--10-----------10-9--|
 F|--7------------7--10--10-----------10-9--|
Bb|----------------------10-----------10-9--|

Verse 1 Guitar 2
 C|-(0)-(0)--(0)--(0)-----(0)-(0)-----------|
 G|--5---8---10---12-------5---3---(0)------|
Eb|---------------------------------4-------|
Bb|-----------------------------------------|
 F|-----------------------------------------|
Bb|-----------------------------------------|
    |---------Tremolo Pick---------|

Verse 1 Guitar 1 cont.
 C|-----------------------------------------------------|
 G|-----------------------------------------------------|
Eb|--9------------9-12---------------------9------------|
Bb|--9------------9-12--10------------10-9-9------------|
 F|--7------------7-10--10------------10-9-7------------|
Bb|---------------------10------------10-9--------------|

Verse 1 Guitar 2 cont.
 C|-(0)-(0)--(0)--(0)-----(0)-(0)-----------------------|
 G|--5---8---10---12-------5---3---(0)----------3/5555--|
Eb|---------------------------------4-------------------|
Bb|-----------------------------------------------------|
 F|-----------------------------------------------------|
Bb|-----------------------------------------------------|
    |---------Tremolo Pick---------|

Chorus Guitars 1 and 2 *play 2 times*
 C|-----------------------------------------------------------------|
 G|-----------------------------------------------------------------|
Eb|------------4--4-4-4--5-5-----5--5-5-5------------4--4-4-4-------|
Bb|--2--2-2-2--4--4-4-4--5-5-x-x-5--5-5-5--5--5-5-5--4--4-4-4-x--0--|
 F|--2--2-2-2--2--2-2-2--3-3-x-x-3--3-3-3--5--5-5-5--2--2-2-2-x--0--|
Bb|--2--2-2-2----------------x-x-----------5--5-5-5-----------x--0--|

Retro Guitar 2 (Aaron)
 C|---------------------------------------------------------------|
 G|---------------------------------------------------------------|
Eb|---------------------------------------------------------------|
Bb|--2--0-2p0-2---0-2p0--5-5-4-0---2--0-2p0-2---0-2p0--5-5-4-0----|
 F|--2--0-2p0-2---0-2p0--5-5-4-0---2--0-2p0-2---0-2p0--5-5-4-0----|
Bb|--2--0-2p0-2---0-2p0--5-5-4-0---2--0-2p0-2---0-2p0--5-5-4-0----|

 C|----------------------------------------------------------------|
 G|---------------------------------------------------15-15-15-15--|
Eb|--------------------16-16-16-16--------------------16-16-16-16--|
Bb|--10-10-10h12-1010---x--x--x--x--10-10-10h12-1010---x--x--x--x--|
 F|--10-10-10h12-1010--14-14-14-14--10-10-10h12-1010--14-14-14-14--|
Bb|--10-10-10h12-1010---------------10-10-10h12-1010---------------|

Retro Guitar 1 (Ben)
 C|---------------------------------------------------------------|
 G|--555--------888--777--55--------555--------888--777--55-------|
Eb|-------777-----------------77---------777-----------------77---|
Bb|---------------------------------------------------------------|
 F|---------------------------------------------------------------|
Bb|---------------------------------------------------------------|

Guitar 1 Cont.
 C|----------------------------------------------------------------|
 G|---------------------------------------------------15-15-15-15--|
Eb|--------------------16-16-16-16--------------------16-16-16-16--|
Bb|--10-10-10h12-1010---x--x--x--x--10-10-10h12-1010---x--x--x--x--|
 F|--10-10-10h12-1010--14-14-14-14--10-10-10h12-1010--14-14-14-14--|
Bb|--10-10-10h12-1010---------------10-10-10h12-1010---------------|

Verse 2 Guitar 1
 C|-----------------------------------------|
 G|-----------------------------------------|
Eb|--9------------9-12----------------------|
Bb|--9------------9-12--10------------10-9--|
 F|--7------------7-10--10------------10-9--|
Bb|---------------------10------------10-9--|

Verse 2 Guitar 2
 C|-(0)-(0)--(0)--(0)-----(0)-(0)-----------|
 G|--5---8---10---12-------5---3---(0)------|
Eb|---------------------------------4-------|
Bb|-----------------------------------------|
 F|-----------------------------------------|
Bb|-----------------------------------------|
    |---------Tremolo Pick---------|

Verse 2 Guitar 1 cont.
 C|-----------------------------------------------------|
 G|-----------------------------------------------------|
Eb|--9------------9-12---------------------9------------|
Bb|--9------------9-12--10------------10-9-9------------|
 F|--7------------7-10--10------------10-9-7------------|
Bb|---------------------10------------10-9--------------|

Verse 2 Guitar 2 cont.
 C|-(0)-(0)--(0)--(0)-----(0)-(0)-----------------------|
 G|--5---8---10---12-------5---3---(0)----------3/5555--|
Eb|---------------------------------4-------------------|
Bb|-----------------------------------------------------|
 F|-----------------------------------------------------|
Bb|-----------------------------------------------------|
    |---------Tremolo Pick---------|

Chorus Guitar 1
 C|-----------------------------------------------------------------|
 G|-----------------------------------------------------------------|
Eb|------------4--4-4-4--5-5-----5--5-5-5------------4--4-4-4-------|
Bb|--2--2-2-2--4--4-4-4--5-5-x-x-5--5-5-5--5--5-5-5--4--4-4-4-x--0--|
 F|--2--2-2-2--2--2-2-2--3-3-x-x-3--3-3-3--5--5-5-5--2--2-2-2-x--0--|
Bb|--2--2-2-2----------------x-x-----------5--5-5-5-----------x--0--|

Chorus Guitar 2
 C|-----------------------------------------------------------------|
 G|-----------------------------------------------------------------|
Eb|-----------------------------------------------------------------|
Bb|------9-10--9-------------x-x-----------12-12--------------x-----|
 F|--7---------9---9--12--10-x-x-10------------------10--10---x--9--|
Bb|--------------------------x-x------------------------------x-----|

Guitar 1 (Ben)
 C|--------------------------------------------------------|
 G|--------------------------------------------------------|
Eb|------------4--4-4-4--5-5-----5--5-5-5------------------|
Bb|--2--2-2-2--4--4-4-4--5-5-x-x-5--5-5-5--5--5-5-5--4--0--|
 F|--2--2-2-2--2--2-2-2--3-3-x-x-3--3-3-3--5--5-5-5--5--0--|
Bb|--2--2-2-2----------------x-x-----------5--5-5-5--4--0--|

Guitar 1 (Aaron)
 C|--------------------------------------------------------|
 G|--------------------------------------------------------|
Eb|--------------------------------------------------------|
Bb|------9--10-12------------x-x-----------12-12-----------|
 F|--7--------------9--12-10-x-x-10------------------10-9--|
Bb|--------------------------x-x---------------------------|

Bridge Guitars 1 and 2 *played once*
 C|-(0)----------------------------------------------------|
 G|--5-----------------------------------------------------|
Eb|--4------------4-----------5----------------------------|
Bb|--2------------4-----------5-----------5----------4-p0--|
 F|--2------------2-----------3-----------5----------5-p0--|
Bb|--2------------------------------------5----------4-p0--|

Bridge Guitar 1 *played 3 times*
 C|-----------------------------------------|
 G|-----------------------------------------|
Eb|-----------4--------5--------------------|
Bb|--2--------4--------5---------5------4---|
 F|--2--------2--------3---------5------5---|
Bb|--2---------------------------5------4---|

Bridge Guitar 2 cont. *played 2 times*
 C|-----------------------------------------|
 G|---0----0----0---0----0----0--3-0-----0--|
Eb|------0--------2----0----5-----------2---|
Bb|--2---------4----------------------------|
 F|-----------------------------------------|
Bb|-----------------------------------------|

Bridge Guitar 2 Cont. *played after 2nd time*
 C|--------0--------------------------------|
 G|---0---------0---0----0----0--3-0-----0--|
Eb|------0--------2----0----5-----------2---|
Bb|--2---------4----------------------------|
 F|-----------------------------------------|
Bb|-----------------------------------------|

Bridge Guitar 1 cont. *played after 3rd time*
 C|-----------------------------|
 G|-----------------------------|
Eb|------------4-------5--------|
Bb|--2---------4-------5--------|
 F|--2---------2-------3--------|
Bb|--2--------------------------|

Bridge Guitar 2 cont. *played after 3rd time*
 C|--------0-----------0--------|
 G|---0---------0---0--5--------|
Eb|------0--------2----5--------|
Bb|--2---------4-------5--------|
 F|-----------------------------|
Bb|-----------------------------|

Chorus Guitar 1 *play 2 times*
 C|-----------------------------------------------------------------|
 G|-----------------------------------------------------------------|
Eb|------------4--4-4-4--5-5-----5--5-5-5------------4--4-4-4-------|
Bb|--2--2-2-2--4--4-4-4--5-5-x-x-5--5-5-5--5--5-5-5--4--4-4-4-x--0--|
 F|--2--2-2-2--2--2-2-2--3-3-x-x-3--3-3-3--5--5-5-5--2--2-2-2-x--0--|
Bb|--2--2-2-2----------------x-x-----------5--5-5-5-----------x--0--|

Chorus Guitar 2 *played 2 times*
 C|--19-------------------17-19-------------------17--|
 G|------20--17--20-17h20--------20--17--20-17h20-----|
Eb|---------------------------------------------------|
Bb|---------------------------------------------------|
 F|---------------------------------------------------|
Bb|---------------------------------------------------|

 C|--19------------------17-19-19-19-19--17-17-17-17--|
 G|-----20--17--20-17h20------------------------------|
Eb|---------------------------------------------------|
Bb|---------------------------------------------------|
 F|---------------------------------------------------|
Bb|---------------------------------------------------|

Outro Guitar 2 (Aaron) *play 2 times*                             --|
 C|---------------------------------------------------------------| |
 G|---------------------------------------------------------------| |
Eb|---------------------------------------------------------------| |
Bb|--2--0-2p0-2---0-2p0--5-5-4-0---2--0-2p0-2---0-2p0--5-5-4-0----| |
 F|--2--0-2p0-2---0-2p0--5-5-4-0---2--0-2p0-2---0-2p0--5-5-4-0----| |
Bb|--2--0-2p0-2---0-2p0--5-5-4-0---2--0-2p0-2---0-2p0--5-5-4-0----| |
                                                                    |
 C|----------------------------------------------------------------||
 G|---------------------------------------------------15-15-15-15--||
Eb|--------------------16-16-16-16--------------------16-16-16-16--||
Bb|--10-10-10h12-1010---x--x--x--x--10-10-10h12-1010---x--x--x--x--||
 F|--10-10-10h12-1010--14-14-14-14--10-10-10h12-1010--14-14-14-14--||
Bb|--10-10-10h12-1010---------------10-10-10h12-1010---------------||
                                                                  --|

Outro Guitar 1 *played 2 times*                                   --|
 C|---------------------------------------------------------------| |
 G|--555--------888--777--55--------555--------888--777--55-------| |
Eb|-------777-----------------77---------777-----------------77---| |
Bb|---------------------------------------------------------------| |
 F|---------------------------------------------------------------| |
Bb|---------------------------------------------------------------| |
                                                                    |
 C|----------------------------------------------------------------||
 G|---------------------------------------------------15-15-15-15--||
Eb|--------------------16-16-16-16--------------------16-16-16-16--||
Bb|--10-10-10h12-1010---x--x--x--x--10-10-10h12-1010---x--x--x--x--||
 F|--10-10-10h12-1010--14-14-14-14--10-10-10h12-1010--14-14-14-14--||
Bb|--10-10-10h12-1010---------------10-10-10h12-1010---------------||
                                                                  --|

Guitars 1 and 2
 C|----------------------------------------------------------------|
 G|----------------------------------------------------------------|
Eb|----------------------------------------------------------------|
Bb|--2-------------------------------------------------------------|
 F|--2-------------------------------------------------------------|
Bb|--2-------------------------------------------------------------|

Finished!
Tap to rate this tab
# A B C D E F G H I J K L M N O P Q R S T U V W X Y Z