Song name
# A B C D E F G H I J K L M N O P Q R S T U V W X Y Z

Breaking Benjamin - Outro tab

Breaking Benjamin
Outro
tabbed by U B the band
tuning(s) Guitar 1-D A D G B E
          Guitar 2-Bb F Bb Eb G C
          Guitar 3-D A D G B E (with slider)

Legend
b-bend
( )-optional/bend to
h-hammer on
\-slide down
/-slide up

Intro Guitar 1: 00:00
E|-----------------------|
B|------------2---1------|
G|----3---1-----------3--|
D|-----------------------|
A|--1--------------------|
D|-----------------------|

Guitar 1
E|---------------------|
B|----------2---1------|
G|--3---1-----------3--|
D|---------------------|
A|---------------------|
D|---------------------|x4 Then 0n 4th time distortion swells

Guitar 3: 00:19 (with slider)
E|-------------------------|
B|-------------------------|
G|--12-/13--9-/10-\8--\-6--|
D|-------------------------|
A|-------------------------|
D|-------------------------|

Guitar 2: 00:18
 C|-------------------------|
 G|-------------------------|
Eb|-------------------------|
Bb|--8-7-5--5-5--5-7-10-10--|
 F|--8-7-5--5-5--5-7-8--10--|
Bb|--8-7-5--5-5--5-7-8--10--|

Guitar 1: 00:19
E|---------------------------------------------|
B|----------14-13------14-13--16h18-16--14\13--|
G|--15--13---------15--------------------------|
D|---------------------------------------------|
A|---------------------------------------------|
D|---------------------------------------------|

Guitar 1: 00:27
E|---------------------|
B|----------14-13------|
G|--15--13---------15--|
D|---------------------|
A|---------------------|
D|---------------------|play 3 times

Guitar 2: 00:18
 C|-----------------------------------|
 G|-----------------------------------|
Eb|-----------------------------------|
Bb|--0-0-0-0-0-0-0-0-8-8-8-8-8-8-8-8--|
 F|--0-0-0-0-0-0-0-0-8-8-8-8-8-8-8-8--|
Bb|--0-0-0-0-0-0-0-0-8-8-8-8-8-8-8-8--|

Guitar 2 continued: 00:34
 C|-----------------------------------------------------|
 G|-----------------------------------------------------|
Eb|-----------------------------------------------------|
Bb|--0-0-0-0-0-0-0-0-8-8-8-8-8-8-8-7-5--5-5--5-7-10-10--|
 F|--0-0-0-0-0-0-0-0-8-8-8-8-8-8-8-7-5--5-5--5-7-8--10--|
Bb|--0-0-0-0-0-0-0-0-8-8-8-8-8-8-8-7-5--5-5--5-7-8--10--|

Guitar 1: 00:39
E|------------------------|
B|----------14-13---------|
G|--15--13---------15/20--|
D|------------------------|
A|------------------------|
D|------------------------|

Guitar 3: 00:41 (with slider)
E|----------------------|
B|----------------------|
G|--8/-11--10/11\10\-8--|
D|----------------------|
A|----------------------|
D|----------------------|

Guitar 1: 00:42
E|---------------------------------------------|
B|----------14-13------14-13--16h18-16--14\13--|
G|--15--13---------15--------------------------|
D|---------------------------------------------|
A|---------------------------------------------|
D|---------------------------------------------|

Guitar 3: 00:50 (with slider) Listen for picking (and sliding)
E|--13--13--11--13/14-14-14--13--14/16-16--14-16/18--18--|
B|-------------------------------------------------------|
G|-------------------------------------------------------|
D|-------------------------------------------------------|
A|-------------------------------------------------------|
D|-------------------------------------------------------|
                        ^ move the slider a little bit (side to side)
Guitar 3: 01:04
E|--16/18/20--18/20/21----23--24/-26-26----26--26-26--\--|
B|-------------------------------------------------------|
G|-------------------------------------------------------|
D|-------------------------------------------------------|
A|-------------------------------------------------------|
D|-------------------------------------------------------|
                                                      ^ Slide down

Guitar 2: 00:50
 C|-----------------------------------|
 G|-----------------------------------|
Eb|-----------------------------------|
Bb|--0-0-0-0-0-0-0-0-8-8-8-8-8-8-8-8--|
 F|--0-0-0-0-0-0-0-0-8-8-8-8-8-8-8-8--|
Bb|--0-0-0-0-0-0-0-0-8-8-8-8-8-8-8-8--|

Guitar 2 continued: 00:57
 C|-----------------------------------------------------|
 G|-----------------------------------------------------|
Eb|-----------------------------------------------------|
Bb|--0-0-0-0-0-0-0-0-8-8-8-8-8-8-8-7-5--5-5--5-7-10-10--|
 F|--0-0-0-0-0-0-0-0-8-8-8-8-8-8-8-7-5--5-5--5-7-8--10--|
Bb|--0-0-0-0-0-0-0-0-8-8-8-8-8-8-8-7-5--5-5--5-7-8--10--|

Guitar 2: 01:13
 C|-----------------------------------|
 G|-----------------------------------|
Eb|-----------------------------------|
Bb|--0-0-0-0-0-0-0-0-8-8-8-8-8-8-8-8--|
 F|--0-0-0-0-0-0-0-0-8-8-8-8-8-8-8-8--|
Bb|--0-0-0-0-0-0-0-0-8-8-8-8-8-8-8-8--|

Guitar 3: 01:22 Slide up the fret board with slider (to the pick-ups)

Guitar 2 continued: 01:20
 C|-----------------------------------------------------|
 G|-----------------------------------------------------|
Eb|-----------------------------------------------------|
Bb|--0-0-0-0-0-0-0-0-8-8-8-8-8-8-8-7-5--5-5--5-7-10-10--|
 F|--0-0-0-0-0-0-0-0-8-8-8-8-8-8-8-7-5--5-5--5-7-8--10--|
Bb|--0-0-0-0-0-0-0-0-8-8-8-8-8-8-8-7-5--5-5--5-7-8--10--|

Guitar 2: 01:36
 C|-----|
 G|-----|
Eb|-----|
Bb|--0--|
 F|--0--|
Bb|--0--|

Finished!
Tap to rate this tab
# A B C D E F G H I J K L M N O P Q R S T U V W X Y Z