Song name
# A B C D E F G H I J K L M N O P Q R S T U V W X Y Z

Breaking Benjamin - Follow Me tab

Off the album "We Are Not Alone"

Use a decent amount of distortion

E|-------------------------------------------------------------------------|
B|-------------------------------------------------------------------------|
G|-------------------------------------------------------------------------|
D|-------------------------------------------------------------------------|
A|-4p2p0--2--4-4-4-4---XX---4p2p0--7--4-4-4-4------------------------------|
D|-4p2p0--2--4-4-4-4---XX---4p2p0--7--4-4-4-4------------------------------|

E|-------------------------------------------------------------------------|
B|-------------------------------------------------------------------------|
G|-------------------------------------------------------------------------|
D|-------------------------------------------------------------------------|
A|-4p2p0--2--4-4-4-4---XX---4p2p0--7--4-4-4-----X-0-X-2-2-4-4-4-4---XX-----|
D|-4p2p0--2--4-4-4-4---XX---4p2p0--7--4-4-4-----X-0-X-2-2-4-4-4-4---XX-----|

E|-------------------------------------------------------------------------|
B|-------------------------------------------------------------------------|
G|-------------------------------------------------------------------------|
D|-------------------------------------------------------------------------|
A|-4p2p0--7--4-4-4-4---XX---4p2p0--2--4-4-4-4------------------------------|
D|-4p2p0--7--4-4-4-4---XX---4p2p0--2--4-4-4-4------------------------------|

E|-------------------------------------------------------------------------|
B|-------------------------------------------------------------------------|
G|-------------------------------------------------------------------------|
D|-------------------------------------------------------------------------|
A|-4p2p0--7--4-4-4-4---0--2-4~---------------------------------------------|
D|-4p2p0--7--4-4-4-4---0--2-4~---------------------------------------------|

Enjoy! \m/
Tap to rate this tab
# A B C D E F G H I J K L M N O P Q R S T U V W X Y Z