Song name
# A B C D E F G H I J K L M N O P Q R S T U V W X Y Z

Breaking Benjamin - Believe tab

-------------------------------------------------------------------------------
			     BELIEVE - BREAKING BENJAMIN
-------------------------------------------------------------------------------
Tabbed by:Steve (Undercoverswat)
Email:Stwa99@aol.com

This is the tab for the way I play this song
Im almost positive its about 100% correct except for the background sounds 
which i did not put in but are in my video

http://www.youtube.com/watch?v=yJD6n3MTTlw
(My video of my cover of Believe using these tabs)


Tuning: Drop D (D A D G B e)


  Intro: with wah effect

e|---------------------------------------------------------------------------|
B|---------------------------------------------------------------------------|
G|---------------------------------------------------------------------------|
D|-2----------------------------2--------------------------------------------|
A|-------------------------1-----------------------------1-------------------|
D|---2--0--2--2---2--2--0----------2--0--2--2---2--2--0----------------------|

  Distortion

e|---------------------------------------------------------------------------|
B|---------------------------------------------------------------------------|
G|---------------------------------------------------------------------------|
D|-2--------------------------2----------------------------------------------|
A|-------------------------1-------------------------------------------------|
D|---2--0--2--2---2--2--0-------2--0--2--2---2--2--3--3--1-------------------|

e|---------------------------------------------------------------------------|
B|---------------------------------------------------------------------------|
G|---------------------------------------------------------------------------|
D|-2---------------------------2------------------------0--------------------|
A|-------------------------1-------------------------1-----------------------|
D|---2--0--2--2---2--2--0---------2--0--2--2---2--2--------------------------|

e|---------------------------------------------------------------------------|
B|---------------------------------------------------------------------------|
G|---------------------------------------------------------------------------|
D|----------------------------2----------------------------------------------|
A|-2---------------------1---------------------------------------------------|
D|-2--0--2--2---2--2--0---------2--0--2--2---2--2--3--3--1-------------------|

e|---------------------------------------------------------------------------|
B|---------------------------------------------------------------------------|
G|---------------------------------------------------------------------------|
D|-2---------------------------2---------------------------0-----------------|
A|-------------------------1----------------------------1--------------------|
D|---2--0--2--2---2--2--0---------2--0--2--2---2--2--2-----------------------|


  Verse: (Dont Tread the water / Dont pull me under)
  
  xxxxxxxxxxxxxxxxxPALM MUTExxxxxxxxxxxxxxxxxxxxxxxxxxxxxxxxxxxxxxx-RELEASE-
e|---------------------------------------------------------------------------|
B|---------------------------------------------------------------------------|
G|---------------------------------------------------------------------------|
D|---------------------------------------------------------------------------|
A|0-2---0-0-0-2---0-0-0-2---0-0-0-2--3-2---0-2---0-0-0-2---0-0-0-2--0-0-0--3-|
D|0-2---0-0-0-2---0-0-0-2---0-0-0-2--3-2---0-2---0-0-0-2---0-0-0-2--0-0-0--3-|

e|---------------------------------------------------------------------------|
B|---------------------------------------------------------------------------|
G|---------------------------------------------------------------------------|
D|---------------------------------------------------------------------------|
A|0-2---0-0-0-2---0-0-0-2---0-0-0-2--3-2---0-2---0-0-0-2---0-0-0-2--0-0-0--3-|
D|0-2---0-0-0-2---0-0-0-2---0-0-0-2--3-2---0-2---0-0-0-2---0-0-0-2--0-0-0--3-|

e|---------------------------------------------------------------------------|
B|---------------------------------------------------------------------------|
G|---------------------------------------------------------------------------|
D|---------------------------------------------------------------------------|
A|0-2---0-0-0-2---0-0-0-2---0-0-0-2--3-2---0-2---0-0-0-2---0-0-0-2--0-0-0--3-|
D|0-2---0-0-0-2---0-0-0-2---0-0-0-2--3-2---0-2---0-0-0-2---0-0-0-2--0-0-0--3-|


  Chorus: (I dont care what you want...)

e|---------------------------------------------------------------------------|
B|---------------------------------------------------------------(8)-(8)-----|
G|---------------------------------------------------------------(7)-(7)-----|
D|--2--0--3--2--0--2--0--2--3--2--5------2--0--3--2--0--2--0--2---5---5------|
A|--2--0--3--2--0--2--0--2--3--2--5------2--0--3--2--0--2--0--2---5---5------|
D|--2--0--3--2--0--2--0--2--3--2--5------2--0--3--2--0--2--0--2---5---5------|

e|---------------------------------------------------------------------------|
B|---------------------------------------------------------------(8)-(8)-----|
G|---------------------------------------------------------------(7)-(7)-----|
D|--2--0--3--2--0--2--0--2--3--2--5------2--0--3--2--0--2--0--2---5---5------|
A|--2--0--3--2--0--2--0--2--3--2--5------2--0--3--2--0--2--0--2---5---5------|
D|--2--0--3--2--0--2--0--2--3--2--5------2--0--3--2--0--2--0--2---5---5------|


  Chorus Lead out (only after first chorus)

e|---------------------------------------------------------------------------|
B|---------------------------------------------------------------------------|
G|---------------------------------------------------------------------------|
D|---------0--0--0--2----0--0--0--2-----------2--0---------------------------|
A|-0--2----0--0--0--2----0--0--0--2----0--0---------2--1--0------------------|
D|-0--2----0--0--0--2----0--0--0--2----0--0------------------5--2------------|

Repeat Verse
Repeat Chorus

  Interlude

e|---------------------------------------------------------------------------|
B|---------------------------------------------------------------------------|
G|--------4------5---------7------------4------5---------7-------------------|
D|-7------0------2---------4-----7------0------2---------4-------------------|
A|-4------2------3---------5-----4------2------3---------5-------------------|
D|-7-----------------------------7-------------------------------------------|


e|---------------------------------------------------------------------------|
B|---------------------------------------------------------------------------|
G|--------4--4---5--5--5---7------------4--4---5--5--5-----------------------|
D|-7--7---0------2---------4-----7--7---0------2---------5-------------------|
A|-4------2------3---------5-----4------2------3---------5-------------------|
D|-7-----------------------------7-----------------------5-------------------|


   Low Volume and palm mute
  xxxxxxxxxxxxxxxxxxxxxxxxxxxxxxPALM MUTExxxxxxxxxxxxxxxxxxxxxxxxxxxxxxxxxxxx
e|---------------------------------------------------------------------------|
B|---------------------------------------------------------------------------|
G|---------------------------------------------------------------------------|
D|--2--0--3--2--0--2--0--2--3--2--5------2--0--3--2--0--2--0--2---5---5------|
A|--2--0--3--2--0--2--0--2--3--2--5------2--0--3--2--0--2--0--2---5---5------|
D|--2--0--3--2--0--2--0--2--3--2--5------2--0--3--2--0--2--0--2---5---5------|

  xxxxxxxxxxxxxxxxxxxxxxxxxxxxxxxxx      ~RELEASE PALM MUTE, RAISE VOLUME~
e|---------------------------------------------------------------------------|
B|---------------------------------------------------------------------------|
G|---------------------------------------------------------------------------|
D|--2--0--3--2--0--2--0--2--3--2--5------2--0--3--2--0--2--0--2---5---5------|
A|--2--0--3--2--0--2--0--2--3--2--5------2--0--3--2--0--2--0--2---5---5------|
D|--2--0--3--2--0--2--0--2--3--2--5------2--0--3--2--0--2--0--2---5---5------|

Repeat Chorus Twice


  Outro

e|---------------------------------------------------------------------------|
B|---------------------------------------------------------------------------|
G|---------------------------------------------------------------------------|
D|-2----------------------------2--------------------------------------------|
A|-------------------------1-------------------------------------------------|
D|---2--0--2--2---2--2--0----------2--0--2--2---2--2--3--3--1----------------|

e|---------------------------------------------------------------------------|
B|---------------------------------------------------------------------------|
G|---------------------------------------------------------------------------|
D|-2-----------------------------2----0----2---------------------------------|
A|--------------------------2----2----0----2---------------------------------|
D|----2--0--2--2---2--2--0-------2----0----2---------------------------------|




| /  slide up
| \  slide down
| h  hammer-on
| p  pull-off
| ~  vibrato
| +  harmonic
| x  Mute note
===============================================================================
Tap to rate this tab
 
# A B C D E F G H I J K L M N O P Q R S T U V W X Y Z