Song name
# A B C D E F G H I J K L M N O P Q R S T U V W X Y Z

Breaking Benjamin - Intro tab

Intro
 E|-----------------------------------------------------|
 B|-----------------------------------------------------|
 G|--------------6----5-------------------6----5--------|
 D|----8----5--------------8----8----5---------------8--|
 A|-----------------------------------------------------|
 E|--6------------------------6-------------------------|


 E|-----------------------------------------------------|
 B|-----------------------------------------------------|
 G|--------------6----5-------------------6----5--------|
 D|----8----5--------------8----8----5---------------8--|
 A|-----------------------------------------------------|
 E|--6------------------------6-------------------------|

 E|-----------------------------------------------------|
 B|-----------------------------------------------------|
 G|--------------6----5-------------------6----5-----8--|
 D|----8----5--------------8----8----5------------------|
 A|-----------------------------------------------------|
 E|--6------------------------6-------------------------|


 E|-----------------------------------------------------|
 B|-----------------------------------------------------|
 G|--------------6----5---------6--5--6--8-5-6-8---5-6-5|
 D|----8----5--------------8----------------------------|
 A|-----------------------------------------------------|
 E|--6------------------------6-------------------------|


 E|-----------------------------------------------------|
 B|-----------------------------------------------------|
 G|--------------6----5-------------------6----5--------|
 D|----8----5--------------8----8----5---------------8--|
 A|-----------------------------------------------------|
 E|--6------------------------6-------------------------|


 E|-----------------------------------------------------|
 B|-----------------------------------------------------|
 G|--------------6----5-------------------6----5--------|
 D|----8----5--------------8----8----5---------------8--|
 A|-----------------------------------------------------|
 E|--6------------------------6-------------------------|


 E|-----------------------------------------------------|
 B|-----------------------------------------------------|
 G|----6---5---6---6---5-----6--5--6---9-5-6-9-5-6--5---|
 D|---------------------------------------------------8-|
 A|-----------------------------------------------------|
 E|--6---------------------6----------------------------|



One Of My very first tabs please comment. Thanks!!!!! =D
Tap to rate this tab
# A B C D E F G H I J K L M N O P Q R S T U V W X Y Z