Song name
# A B C D E F G H I J K L M N O P Q R S T U V W X Y Z

Breaking Benjamin - The Diary Of Jane chords

Highlighted       Show chord diagrams
|--1-1-1-1-2-1-1-4-2-1---|
|------------------------|  
|-3-3-3-3---3-3-3--------|   3x
|------------------------|
|------------------------|
|------------------------|

|--1-1-4-2-1--|          |-1/2-|
|-------------|          |-----|
|-3-3-3-------|   3x     |-----|
|-------------|          |-----|
|-------------|          |-----|
|-------------|          |-----|

|--1-1-4-2-1--1-1--------|     
|-----------------1/2/1--|    
|-3-3-3------3-3-3-------|  2x
|------------------------|
|------------------------|
|------------------------|

Em
If I had to
Em
I would put myself right beside you
Em
So let me ask
C
Would you like that?
D
Would you like that?
Em
And I don't mind
Em
If you say this love is the last time
Em
So now I'll ask
C
Do you like that?
D
Do you like that?

No!
Em
Something's getting in the way.
C
Something's just about to break.
G                           D
I will try to find my place in the diary of Jane.
C          D
So tell me how it should be.


|--1-1-4-2-1--1-1--------|     
|-----------------1/2/1--|    
|-3-3-3------3-3-3-------|
|------------------------|
|------------------------|
|------------------------|


Em
Try to find out what makes you tick.
Em
As I lie down
Em
Sore and sick.
C
Do you like that?
D
Do you like that?
Em
There's a fine line between love and hate.
Em
And I don't mind.
Em
Just let me say that
C
I like that
D
I like that
Em
Something's getting in the way.
C
Something's just about to break.
G                           D
I will try to find my place in the diary of Jane.
Em
As I burn another page,
C
As I look the other way.
G                            D
I still try to find my place in the diary of Jane.
C          D
So tell me how it should be.

(SOLO)

|-6-8-4---1-4----6-8-4---1-4-4/6--|
|------3-4---4-3------3-4---------|
|---------------3-----------------|
|---------------------------------|
|---------------------------------|
|---------------------------------|


Am
Desperate, I will crawl
C
Waiting for so long
Em
No love, there is no love.
Am
Die for anyone
C
What have I become?

Em
Something's getting in the way.
C
Something's just about to break.
G                           D
I will try to find my place in the diary of Jane.
Em
As I burn another page,
C
As I look the other way.
G                            D
I still try to find my place in the diary of Jane.


|--1-1-4-2-1--1-1--------|     
|-----------------1/2/1--|    
|-3-3-3------3-3-3-------|  2x
|------------------------|
|------------------------|
|------------------------|
Tap to rate this tab
 
# A B C D E F G H I J K L M N O P Q R S T U V W X Y Z