Song name
# A B C D E F G H I J K L M N O P Q R S T U V W X Y Z

Breaking Benjamin - Diary Of Jane tab

----------------------------------------------------------------------------
			     SONG NAME - Band Name
----------------------------------------------------------------------------
Tabbed by:john hall
Email:halljohn97@yahoo.com

Tuning:A sharp

Ive also found out how to play the solo so i tabbed it.

e|----------------17---------------------------------------|
B|-15-17---------------------------15-17----------------15-|
G|-------17----------15------------------17-------14-17----|
D|----------16h17-------16-15---------------16h17----------|
A|----------------------------16---------------------------|
E|---------------------------------------------------------|


| /  slide up
| \  slide down
| h  hammer-on
| p  pull-off
| ~  vibrato
| +  harmonic
| x  Mute note
============================================================================
Tap to rate this tab
# A B C D E F G H I J K L M N O P Q R S T U V W X Y Z