Song name
# A B C D E F G H I J K L M N O P Q R S T U V W X Y Z

Breaking Benjamin - What Lies Beneath tab

Breaking Benjamin
What Lies Beneath
Tabbed by U B the band
Tuning Db Ab Db Gb Bb Eb

Legend
/-slide up

Intro: Guitar 1 (Clean)
Eb|-------------------------------------------------------------------|
Bb|-------------------------------------------------------------------|
Gb|--------------------------0--------------0--------------0----------|
Db|--------4------------7------4---------4-------------4-----4--------|
Ab|-----2-------------5---------------3------------------5-----5------|
Db|--2--------------5--------------------------------0----------------|

Verse 1: Guitar 1 (Clean) PLAY 3 TIMES
Eb|-------------------------------------------------------------------|
Bb|-------------------------------------------------------------------|
Gb|--------------------------------------0----------------0-----------|
Db|--------4--------------7----------4-----4-----------4--------------|
Ab|-----2--------------5---------------5-----5------3-----------------|
Db|--2--------------5--------------0----------------------------------|

Verse 1: Guitar 1 (Clean) PLAY 3 TIMES
Eb|-------------------------------------------------------------------|
Bb|-------------------------------------------------------------------|
Gb|--------------------------------------0--------------0-----0-------|
Db|--------4--------------7----------4-----4----------4-----4---------|
Ab|-----2--------------5---------------5-----5------3-----3-----------|
Db|--2--------------5--------------0----------------------------------|

Chorus: Guitar 1 (Distorted)
Eb|-------------------------------------------------------------------|
Bb|-------------------------------------------------------------------|
Gb|-------------------------------------------------------4--4--4-----|
Db|--5-5--5-5--5-5--5-5--5-5--5-5--0-0--0-0--0-0--0-0--0--4--4--4-----|
Ab|--5-5--5-5--5-5--5-5--5-5--5-5--0-0--0-0--0-0--0-0--0--2--2--2-----|
Db|--5-5--5-5--5-5--5-5--5-5--5-5--0-0--0-0--0-0--0-0--0--------------|
                                                                      |
Chorus: Guitar 2 (Low Distortion)                                     |
Eb|-------------------------------------------------------------------|
Bb|---------10--10---------10--10---------10--10----------------------|
Gb|----12-----12------12-----12------12-----12------12-----11---------|
Db|--12--12---------12--12---------12--12---------12--12----x---------|
Ab|---------------------------------------------------------9---------|
Db|-------------------------------------------------------------------|

Chorus: Guitar 1 (Distorted)
Eb|-------------------------------------------------------------------|
Bb|-------------------------------------------------------------------|
Gb|----------------------------------5-5--5-5--5-5--5-5--5------------|
Db|--2-2--2-2--2-2--0-0--0--2--2--2--5-5--5-5--5-5--5-5--5--0--0--0---|
Ab|--2-2--2-2--2-2--0-0--0--2--2--2--3-3--3-3--3-3--3-3--3--0--0--0---|
Db|--2-2--2-2--2-2--0-0--0--2--2--2-------------------------0--0--0---|
                                                                      |
Chorus: Guitar 2 (Low Distortion)                                     |
Eb|-------------------------------------------------------------------|
Bb|-------------------------------------------------------------------|
Gb|----11---12-11-9----11---12-11-9----11---12-11-9----11---11-12-9---|
Db|--12--12----------12--12----------12--12----------12--12-----------|
Ab|-------------------------------------------------------------------|
Db|-------------------------------------------------------------------|

Chorus: Guitar 1 (Distorted)
Eb|-------------------------------------------------------------------|
Bb|-------------------------------------------------------------------|
Gb|-------------------------------------------------------4--4--4-----|
Db|--5-5--5-5--5-5--5-5--5-5--5-5--0-0--0-0--0-0--0-0--0--4--4--4-----|
Ab|--5-5--5-5--5-5--5-5--5-5--5-5--0-0--0-0--0-0--0-0--0--2--2--2-----|
Db|--5-5--5-5--5-5--5-5--5-5--5-5--0-0--0-0--0-0--0-0--0--------------|
                                                                      |
Chorus: Guitar 2 (Low Distortion)                                     |
Eb|-------------------------------------------------------------------|
Bb|---------10--10---------10--10----------10--10---------------------|
Gb|----12-----12------12-----12-------12-----12------12-----11--------|
Db|--12--12---------12--12----------12--12---------12--12----x--------|
Ab|----------------------------------------------------------9--------|
Db|-------------------------------------------------------------------|

Chorus: Guitar 1 (Distorted)
Eb|-------------------------------------------------------------------|
Bb|-------------------------------------------------------------------|
Gb|----------------------------------5-5--5-5--5-5--5-5--5--4--4--4---|
Db|--2-2--2-2--2-2--0-0--0--2--2--2--5-5--5-5--5-5--5-5--5--4--4--4---|
Ab|--2-2--2-2--2-2--0-0--0--2--2--2--3-3--3-3--3-3--3-3--3--2--2--2---|
Db|--2-2--2-2--2-2--0-0--0--2--2--2-----------------------------------|
                                                                      |
Chorus: Guitar 2 (Low Distortion)                                     |
Eb|-------------------------------------------------------------------|
Bb|-------------------------------------------------------------------|
Gb|----11---12-11-9----11---12-11-9----11---12-11-9----11---11-12-9---|
Db|--12--12----------12--12----------12--12----------12--12-----------|
Ab|-------------------------------------------------------------------|
Db|-------------------------------------------------------------------|

Post Chorus: Guitar 1 (Distorted)
Eb|-------------------------------------------------------------------|
Bb|-------------------------------------------------------------------|
Gb|------------------4--4---4--4--4--5--5---5--5--5-----------4--4--4-|
Db|--2--2---2--2--2--4--4---4--4--4--5--5---5--5--5--5--5--5--4--4--4-|
Ab|--2--2---2--2--2--2--2---2--2--2--3--3---3--3--3--5--5--5--2--2--2-|
Db|--2--2---2--2--2----------------------------------5--5--5----------|
                                                                      |
Post Chorus: Guitar 2 (Distorted)                                     |
Eb|-------------------------------------------------------------------|
Bb|--5---------------7--------------/13-----------------------10------|
Gb|--------------------------------------------------------12----11-12|
Db|-------------------------------------------------------------------|
Ab|-------------------------------------------------------------------|
Db|-------------------------------------------------------------------|

Verse 2: Guitar 1 (Clean) *STRUM* PLAY 4 TIMES
Eb|-------------------------------------------------3-----------------|
Bb|-------------------------------------------------3-----------------|
Gb|--4--------------7--------------2----------------5-----------------|
Db|--2--------------5--------------0----------------5-----------------|
Ab|--2--------------5--------------0----------------3-----------------|
Db|--2--------------5--------------0----------------------------------|
                                                                      |
Verse 2: Guitar 2 (Distorted) PLAY THE 1st TIME ONLY                  |
Eb|-------------------------------------------------------------------|
Bb|-------------------------------------------------------------------|
Gb|--9----------------------------------------------------------------|
Db|-------------------------------------------------------------------|
Ab|-------------------------------------------------------------------|
Db|-------------------------------------------------------------------|


Chorus: Guitar 1 (Distorted)
Eb|-------------------------------------------------------------------|
Bb|-------------------------------------------------------------------|
Gb|-------------------------------------------------------4--4--4-----|
Db|--5-5--5-5--5-5--5-5--5-5--5-5--0-0--0-0--0-0--0-0--0--4--4--4-----|
Ab|--5-5--5-5--5-5--5-5--5-5--5-5--0-0--0-0--0-0--0-0--0--2--2--2-----|
Db|--5-5--5-5--5-5--5-5--5-5--5-5--0-0--0-0--0-0--0-0--0--------------|
                                                                      |
Chorus: Guitar 2 (Low Distortion)                                     |
Eb|-------------------------------------------------------------------|
Bb|---------10--10---------10--10---------10--10----------------------|
Gb|----12-----12------12-----12------12-----12------12-----11---------|
Db|--12--12---------12--12---------12--12---------12--12----x---------|
Ab|---------------------------------------------------------9---------|
Db|-------------------------------------------------------------------|

Chorus: Guitar 1 (Distorted)
Eb|-------------------------------------------------------------------|
Bb|-------------------------------------------------------------------|
Gb|----------------------------------5-5--5-5--5-5--5-5--5------------|
Db|--2-2--2-2--2-2--0-0--0--2--2--2--5-5--5-5--5-5--5-5--5--0--0--0---|
Ab|--2-2--2-2--2-2--0-0--0--2--2--2--3-3--3-3--3-3--3-3--3--0--0--0---|
Db|--2-2--2-2--2-2--0-0--0--2--2--2-------------------------0--0--0---|
                                                                      |
Chorus: Guitar 2 (Low Distortion)                                     |
Eb|-------------------------------------------------------------------|
Bb|-------------------------------------------------------------------|
Gb|----11---12-11-9----11---12-11-9----11---12-11-9----11---11-12-9---|
Db|--12--12----------12--12----------12--12----------12--12-----------|
Ab|-------------------------------------------------------------------|
Db|-------------------------------------------------------------------|

Chorus: Guitar 1 (Distorted)
Eb|-------------------------------------------------------------------|
Bb|-------------------------------------------------------------------|
Gb|-------------------------------------------------------4--4--4-----|
Db|--5-5--5-5--5-5--5-5--5-5--5-5--0-0--0-0--0-0--0-0--0--4--4--4-----|
Ab|--5-5--5-5--5-5--5-5--5-5--5-5--0-0--0-0--0-0--0-0--0--2--2--2-----|
Db|--5-5--5-5--5-5--5-5--5-5--5-5--0-0--0-0--0-0--0-0--0--------------|
                                                                      |
Chorus: Guitar 2 (Low Distortion)                                     |
Eb|-------------------------------------------------------------------|
Bb|---------10--10---------10--10----------10--10---------------------|
Gb|----12-----12------12-----12-------12-----12------12-----11--------|
Db|--12--12---------12--12----------12--12---------12--12----x--------|
Ab|----------------------------------------------------------9--------|
Db|-------------------------------------------------------------------|

Chorus: Guitar 1 (Distorted)
Eb|-------------------------------------------------------------------|
Bb|-------------------------------------------------------------------|
Gb|----------------------------------5-5--5-5--5-5--5-5--5--4--4--4---|
Db|--2-2--2-2--2-2--0-0--0--2--2--2--5-5--5-5--5-5--5-5--5--4--4--4---|
Ab|--2-2--2-2--2-2--0-0--0--2--2--2--3-3--3-3--3-3--3-3--3--2--2--2---|
Db|--2-2--2-2--2-2--0-0--0--2--2--2-----------------------------------|
                                                                      |
Chorus: Guitar 2 (Low Distortion)                                     |
Eb|-------------------------------------------------------------------|
Bb|-------------------------------------------------------------------|
Gb|----11---12-11-9----11---12-11-9----11---12-11-9----11---11-12-9---|
Db|--12--12----------12--12----------12--12----------12--12-----------|
Ab|-------------------------------------------------------------------|
Db|-------------------------------------------------------------------|

Bridge: Guitar 1 (Distorted)
Eb|-------------------------------------------------------------------|
Bb|-------------------------------------------------------------------|
Gb|-------------------------------------5--5--5-5-5-5--4--4--4-4-4-4-4|
Db|------------555555------------5-4----5--5--5-5-5-5--5--5--5-5-5-5-5|
Ab|--0-h2-2-2----------0-h2-2-2------5--3--3--3-3-3-3--2--2--2-2-2-2-2|
Db|--0-h2-2-2----------0-h2-2-2---------------------------------------|
                                                                      |
Bridge: Guitar 2 (Low Distortion)                                     |
Eb|-------------------------------------------------------------------|
Bb|--------------------------------------------10--10-----------------|
Gb|---------------------------------------12-----12------11---11-12-9-|
Db|-------------------------------------12--12---------12--12---------|
Ab|-------------------------------------------------------------------|
Db|-------------------------------------------------------------------|

Bridge: Guitar 1 (Distorted)
Eb|-------------------------------------------------------------------|
Bb|-------------------------------------------------------------------|
Gb|-------------------------------------5--5--5-5-5-5--4--4--4-4-4-4-4|
Db|------------555555------------5-4----5--5--5-5-5-5--5--5--5-5-5-5-5|
Ab|--0-h2-2-2----------0-h2-2-2------5--3--3--3-3-3-3--2--2--2-2-2-2-2|
Db|--0-h2-2-2----------0-h2-2-2---------------------------------------|
                                                                      |
Bridge: Guitar 2 (Low Distortion)                                     |
Eb|-------------------------------------------------------------------|
Bb|--------------------------------------------10--10-----------------|
Gb|---------------------------------------12-----12------11---11-12-9-|
Db|-------------------------------------12--12---------12--12---------|
Ab|-------------------------------------------------------------------|
Db|-------------------------------------------------------------------|

Bridge: Guitar 1 (Distorted)
Eb|-------------------------------------------------------------------|
Bb|-------------------------------------------------------------------|
Gb|------------------------------------5------------------------------|
Db|--2----------------0----------------5------------------------------|
Ab|--2----------------0----------------3------------------------------|
Db|--2----------------0-----------------------------------------------|
                                                                      |
Bridge: Guitar 2 (Low Distortion)                                     |
Eb|-------------------------------------------------------------------|
Bb|-------------------------------------------------------------------|
Gb|-------11---12----------12---11-----9------------------------------|
Db|--12---------------12----------------------------------------------|
Ab|-------------------------------------------------------------------|
Db|-------------------------------------------------------------------|

Chorus: Guitar 1 (Distorted)
Eb|-------------------------------------------------------------------|
Bb|-------------------------------------------------------------------|
Gb|-------------------------------------------------------4--4--4-----|
Db|--5-5--5-5--5-5--5-5--5-5--5-5--0-0--0-0--0-0--0-0--0--4--4--4-----|
Ab|--5-5--5-5--5-5--5-5--5-5--5-5--0-0--0-0--0-0--0-0--0--2--2--2-----|
Db|--5-5--5-5--5-5--5-5--5-5--5-5--0-0--0-0--0-0--0-0--0--------------|
                                                                      |
Chorus: Guitar 2 (Low Distortion)                                     |
Eb|-------------------------------------------------------------------|
Bb|---------10--10---------10--10---------10--10----------------------|
Gb|----12-----12------12-----12------12-----12------12-----11---------|
Db|--12--12---------12--12---------12--12---------12--12----x---------|
Ab|---------------------------------------------------------9---------|
Db|-------------------------------------------------------------------|

Chorus: Guitar 1 (Distorted)
Eb|-------------------------------------------------------------------|
Bb|-------------------------------------------------------------------|
Gb|----------------------------------5-5--5-5--5-5--5-5--5------------|
Db|--2-2--2-2--2-2--0-0--0--2--2--2--5-5--5-5--5-5--5-5--5--0--0--0---|
Ab|--2-2--2-2--2-2--0-0--0--2--2--2--3-3--3-3--3-3--3-3--3--0--0--0---|
Db|--2-2--2-2--2-2--0-0--0--2--2--2-------------------------0--0--0---|
                                                                      |
Chorus: Guitar 2 (Low Distortion)                                     |
Eb|-------------------------------------------------------------------|
Bb|-------------------------------------------------------------------|
Gb|----11---12-11-9----11---12-11-9----11---12-11-9----11---11-12-9---|
Db|--12--12----------12--12----------12--12----------12--12-----------|
Ab|-------------------------------------------------------------------|
Db|-------------------------------------------------------------------|

Chorus: Guitar 1 (Distorted)
Eb|-------------------------------------------------------------------|
Bb|-------------------------------------------------------------------|
Gb|-------------------------------------------------------4--4--4-----|
Db|--5-5--5-5--5-5--5-5--5-5--5-5--0-0--0-0--0-0--0-0--0--4--4--4-----|
Ab|--5-5--5-5--5-5--5-5--5-5--5-5--0-0--0-0--0-0--0-0--0--2--2--2-----|
Db|--5-5--5-5--5-5--5-5--5-5--5-5--0-0--0-0--0-0--0-0--0--------------|
                                                                      |
Chorus: Guitar 2 (Low Distortion)                                     |
Eb|-------------------------------------------------------------------|
Bb|---------10--10---------10--10----------10--10---------------------|
Gb|----12-----12------12-----12-------12-----12------12-----11--------|
Db|--12--12---------12--12----------12--12---------12--12----x--------|
Ab|----------------------------------------------------------9--------|
Db|-------------------------------------------------------------------|

Chorus: Guitar 1 (Distorted)
Eb|-------------------------------------------------------------------|
Bb|-------------------------------------------------------------------|
Gb|----------------------------------5-5--5-5--5-5--5-5--5--4--4--4---|
Db|--2-2--2-2--2-2--0-0--0--2--2--2--5-5--5-5--5-5--5-5--5--4--4--4---|
Ab|--2-2--2-2--2-2--0-0--0--2--2--2--3-3--3-3--3-3--3-3--3--2--2--2---|
Db|--2-2--2-2--2-2--0-0--0--2--2--2-----------------------------------|
                                                                      |
Chorus: Guitar 2 (Low Distortion)                                     |
Eb|-------------------------------------------------------------------|
Bb|-------------------------------------------------------------------|
Gb|----11---12-11-9----11---12-11-9----11---12-11-9----11---11-12-9---|
Db|--12--12----------12--12----------12--12----------12--12-----------|
Ab|-------------------------------------------------------------------|
Db|-------------------------------------------------------------------|

Outro: Guitar 1 (Distorted)
Eb|-------------------------------------------------------------------|
Bb|-------------------------------------------------------------------|
Gb|------------------4--4---4--4--4--5--5---5--5--5-----------4--4--4-|
Db|--2--2---2--2--2--4--4---4--4--4--5--5---5--5--5--5--5--5--4--4--4-|
Ab|--2--2---2--2--2--2--2---2--2--2--3--3---3--3--3--5--5--5--2--2--2-|
Db|--2--2---2--2--2----------------------------------5--5--5----------|
                                                                      |
Outro: Guitar 2 (Distorted)                                           |
Eb|-------------------------------------------------------------------|
Bb|--5---------------7--------------/13-----------------------10------|
Gb|--------------------------------------------------------12----11-12|
Db|-------------------------------------------------------------------|
Ab|-------------------------------------------------------------------|
Db|-------------------------------------------------------------------|

Outro: Guitar 1 (Distorted)
Eb|-------------------------------------------------------------------|
Bb|-------------------------------------------------------------------|
Gb|-------------------------------------------------------------------|
Db|--2----------------------------------------------------------------|
Ab|--2----------------------------------------------------------------|
Db|--2----------------------------------------------------------------|
                                                                      |
Outro: Guitar 1 (Distorted)                                           |
Eb|-------------------------------------------------------------------|
Bb|-------------------------------------------------------------------|
Gb|--9----------------------------------------------------------------|
Db|-------------------------------------------------------------------|
Ab|-------------------------------------------------------------------|
Db|-------------------------------------------------------------------|

Finished
Tap to rate this tab
 
# A B C D E F G H I J K L M N O P Q R S T U V W X Y Z