Song name
# A B C D E F G H I J K L M N O P Q R S T U V W X Y Z

Breaking Benjamin - Into The Nothing tab

Breaking Benjamin
Into The Nothing
Tabbed by U B the band
Tuning Db Ab Db Gb Bb Eb

Legend
\-slide down                      /-slide up

Intro: Guitars 1 & 2 (Distorted)
Eb|---------------------------------------------------------------------------|
Bb|---------------------------------------------------------------------------|
Gb|---------------------------------------------------------------------------|
Db|-----------------------------3-3-0-0---------------------------------------|
Ab|--3\2---2--2--0--2---2--3--2----------3\2---2--2--0--2---2--5--0------3-3--|
Db|--3\2---2--2--0--2---2--3--2----------3\2---2--2--0--2---2--5--0--7-7------|

Intro: Guitars 1 & 2 (Distorted)
Eb|---------------------------------------------------------------------------|
Bb|---------------------------------------------------------------------------|
Gb|---------------------------------------------------------------------------|
Db|-----------------------------3-3-0-0---------------------------------------|
Ab|--3\2---2--2--0--2---2--3--2----------3\2---2--2--0--2---2--5--0---3\2-----|
Db|--3\2---2--2--0--2---2--3--2----------3\2---2--2--0--2---2--5--0---3\2-----|

Verse 1: Guitar 1 PLAY 1 TIME
Eb|-----------------------------------3---------3-----------5-----------------|
Bb|-----------------------------------3---------3-----------5-----------------|
Gb|-----------------------------------5---------4-----------7-----------------|
Db|--(2)------------------------------5---------5-----------7-----------------|
Ab|--(2)------------------------------3---------3-----------5-----------------|
Db|--(2)----------------------------------------------------------------------|
      ^-- Fade out                    ^-- Switch to clean (start strumming)   |
                                                                              |
Verse 1: Guitar 2 (Clean STRUM)                                               |
Eb|---------------------------------------------------------------------------|
Bb|--12----------------13----12-----------------------------------------------|
Gb|---x-----------------x-----x-------12--------------------14----------------|
Db|---9----------------10-----9-------12--------------------14----------------|
Ab|-----------------------------------10--------------------12----------------|
Db|---------------------------------------------------------------------------|
                                                                              |
Verse 1: Guitar 3 (Clean)                                                     |
Eb|---------------------------------------------------------19----------------|
Bb|-------------------------------20--19--------17----------------------------|
Gb|---------------------------------------------------------------------------|
Db|---------------------------------------------------------------------------|
Ab|---------------------------------------------------------------------------|
Db|---------------------------------------------------------------------------|

Verse 1: Guitar 1 (Clean STRUM) PLAY 1 TIME
Eb|-----------------------------------3---------3-----------5-----------------|
Bb|-----------------------------------3---------3-----------5-----------------|
Gb|--4--------------------------------5---------4-----------7-----------------|
Db|--2--------------------------------5---------5-----------7-----------------|
Ab|--2--------------------------------3---------3-----------5-----------------|
Db|--2------------------------------------------------------------------------|
                                                                              |
Verse 1: Guitar 2 (Clean STRUM)                                               |
Eb|---------------------------------------------------------------------------|
Bb|--12----------------13----12-----------------------------------------------|
Gb|---x-----------------x-----x-------12--------------------14----------------|
Db|---9----------------10-----9-------12--------------------14----------------|
Ab|-----------------------------------10--------------------12----------------|
Db|---------------------------------------------------------------------------|
                                                                              |
Verse 1: Guitar 3 (Clean)                                                     |
Eb|---------------------------------------------------------19----------------|
Bb|-------------------------------20--19--------17----------------------------|
Gb|---------------------------------------------------------------------------|
Db|---------------------------------------------------------------------------|
Ab|---------------------------------------------------------------------------|
Db|---------------------------------------------------------------------------|

Verse 1: Guitar 1 (Distorted & palm muted) PLAY 2 TIME
Eb|---------------------------------------------------------------------------|
Bb|---------------------------------------------------------------------------|
Gb|---------------------------------------------------------------------------|
Db|-----------------------------------5---------5-----------7------7------7---|
Ab|--3-2-0-2--0-3-2-0-2--0-5-0-3-0----3---------3-----------5------5------5---|
Db|--3-2-0-2--0-3-2-0-2--0-5-0-3-0--------------------------------------------|
                                                                              |
Verse 1: Guitar 2 (Clean STRUM)                                               |
Eb|---------------------------------------------------------------------------|
Bb|--12----------------13----12-----------------------------------------------|
Gb|---x-----------------x-----x-------12--------------------14----------------|
Db|---9----------------10-----9-------12--------------------14----------------|
Ab|-----------------------------------10--------------------12----------------|
Db|---------------------------------------------------------------------------|
                                                                              |
Verse 1: Guitar 3 (Distorted)                                                 |
Eb|---------------------------------------------------------19----------------|
Bb|-----------------------------------19--------17----------------------------|
Gb|---------------------------------------------------------------------------|
Db|---------------------------------------------------------------------------|
Ab|---------------------------------------------------------------------------|
Db|---------------------------------------------------------------------------|

Chorus: Guitar 1 (Distorted) PLAY 2 TIMES
Eb|---------0-----------------------0-----------------------------------------|
Bb|---------0-----------------------0-----------------------------------------|
Gb|--4---------------------------------------0-0-0-0-0-0-0-0-4-4-4-4-4-4-4----|
Db|--2-----------------------5---------------2-2-2-2-2-2-2-2-4-4-4-4-4-4-4-0--|
Ab|--2-----------------------5---------------3-3-3-3-3-3-3-3-2-2-2-2-2-2-2-0--|
Db|--2-----------------------5---------------------------------------------0--|
                                                                              |
Chorus: Guitar 2 (Clean)                                                      |
Eb|------------------------------------------7-7-7-8-8-5-5-5------------------|
Bb|----------------------------------------------------------7-7-7-7-8-7-8-7--|
Gb|---------------------------------------------------------------------------|
Db|---------------------------------------------------------------------------|
Ab|---------------------------------------------------------------------------|
Db|---------------------------------------------------------------------------|

Post Chorus: Guitars 1 & 2 (Distorted)
Eb|---------------------------------------------------------------------------|
Bb|---------------------------------------------------------------------------|
Gb|---------------------------------------------------------------------------|
Db|-----------------------------3-3-0-0---------------------------------------|
Ab|--3\2---2--2--0--2---2--3--2----------3\2---2--2--0--2---2--5--0------3-3--|
Db|--3\2---2--2--0--2---2--3--2----------3\2---2--2--0--2---2--5--0--7-7------|

Post Chorus: Guitars 1 & 2 (Distorted)
Eb|---------------------------------------------------------------------------|
Bb|---------------------------------------------------------------------------|
Gb|---------------------------------------------------------------------------|
Db|-----------------------------3-3-0-0---------------------------------------|
Ab|--3\2---2--2--0--2---2--3--2----------3\2---2--2--0--2---2--5--0---3\2-----|
Db|--3\2---2--2--0--2---2--3--2----------3\2---2--2--0--2---2--5--0---3\2-----|

Verse 2: Guitar 1 PLAY 1 TIME
Eb|-----------------------------------3---------3-----------5-----------------|
Bb|-----------------------------------3---------3-----------5-----------------|
Gb|-----------------------------------5---------4-----------7-----------------|
Db|--(2)------------------------------5---------5-----------7-----------------|
Ab|--(2)------------------------------3---------3-----------5-----------------|
Db|--(2)----------------------------------------------------------------------|
      ^-- Fade out                    ^-- Switch to clean (start strumming)   |
                                                                              |
Verse 2: Guitar 2 (Clean STRUM)                                               |
Eb|---------------------------------------------------------------------------|
Bb|--12----------------13----12-----------------------------------------------|
Gb|---x-----------------x-----x-------12--------------------14----------------|
Db|---9----------------10-----9-------12--------------------14----------------|
Ab|-----------------------------------10--------------------12----------------|
Db|---------------------------------------------------------------------------|
                                                                              |
Verse 2: Guitar 3 (Clean)                                                     |
Eb|---------------------------------------------------------19----------------|
Bb|-------------------------------20--19--------17----------------------------|
Gb|---------------------------------------------------------------------------|
Db|---------------------------------------------------------------------------|
Ab|---------------------------------------------------------------------------|
Db|---------------------------------------------------------------------------|

Verse 2: Guitar 1 (Clean STRUM) PLAY 1 TIME
Eb|-----------------------------------3---------3-----------5-----------------|
Bb|-----------------------------------3---------3-----------5-----------------|
Gb|--4--------------------------------5---------4-----------7-----------------|
Db|--2--------------------------------5---------5-----------7-----------------|
Ab|--2--------------------------------3---------3-----------5-----------------|
Db|--2------------------------------------------------------------------------|
                                                                              |
Verse 2: Guitar 2 (Clean STRUM)                                               |
Eb|---------------------------------------------------------------------------|
Bb|--12----------------13----12-----------------------------------------------|
Gb|---x-----------------x-----x-------12--------------------14----------------|
Db|---9----------------10-----9-------12--------------------14----------------|
Ab|-----------------------------------10--------------------12----------------|
Db|---------------------------------------------------------------------------|
                                                                              |
Verse 2: Guitar 3 (Clean)                                                     |
Eb|---------------------------------------------------------19----------------|
Bb|-------------------------------20--19--------17----------------------------|
Gb|---------------------------------------------------------------------------|
Db|---------------------------------------------------------------------------|
Ab|---------------------------------------------------------------------------|
Db|---------------------------------------------------------------------------|

Verse 2: Guitar 1 (Distorted & palm muted) PLAY 2 TIME
Eb|---------------------------------------------------------------------------|
Bb|---------------------------------------------------------------------------|
Gb|---------------------------------------------------------------------------|
Db|-----------------------------------5---------5-----------7------7------7---|
Ab|--3-2-0-2--0-3-2-0-2--0-5-0-3-0----3---------3-----------5------5------5---|
Db|--3-2-0-2--0-3-2-0-2--0-5-0-3-0--------------------------------------------|
                                                                              |
Verse 2: Guitar 2 (Clean STRUM)                                               |
Eb|---------------------------------------------------------------------------|
Bb|--12----------------13----12-----------------------------------------------|
Gb|---x-----------------x-----x-------12--------------------14----------------|
Db|---9----------------10-----9-------12--------------------14----------------|
Ab|-----------------------------------10--------------------12----------------|
Db|---------------------------------------------------------------------------|
                                                                              |
Verse 2: Guitar 3 (Distorted)                                                 |
Eb|---------------------------------------------------------19----------------|
Bb|-----------------------------------19--------17----------------------------|
Gb|---------------------------------------------------------------------------|
Db|---------------------------------------------------------------------------|
Ab|---------------------------------------------------------------------------|
Db|---------------------------------------------------------------------------|

Chorus: Guitar 1 (Distorted) PLAY 2 TIMES
Eb|---------0-----------------------0-----------------------------------------|
Bb|---------0-----------------------0-----------------------------------------|
Gb|--4---------------------------------------0-0-0-0-0-0-0-0-4-4-4-4-4-4-4----|
Db|--2-----------------------5---------------2-2-2-2-2-2-2-2-4-4-4-4-4-4-4-0--|
Ab|--2-----------------------5---------------3-3-3-3-3-3-3-3-2-2-2-2-2-2-2-0--|
Db|--2-----------------------5---------------------------------------------0--|
                                                                              |
Chorus: Guitar 2 (Clean)                                                      |
Eb|------------------------------------------7-7-7-8-8-5-5-5------------------|
Bb|----------------------------------------------------------7-7-7-7-8-7-8-7--|
Gb|---------------------------------------------------------------------------|
Db|---------------------------------------------------------------------------|
Ab|---------------------------------------------------------------------------|
Db|---------------------------------------------------------------------------|

Bridge: Guitar 1 (Distorted) PLAY 2 TIMES
Eb|---------------------------------------------------------------------------|
Bb|---------------------------------------------------------------------------|
Gb|--0-0-0-0--0-0-0-0--------------------0-0-0-0--0-0-0-0---------------------|
Db|--2-2-2-2--2-2-2-2--2-2-2-2--2-2-2-2--2-2-2-2--2-2-2-2--5-5-5-5--4-4-4-4---|
Ab|--3-3-3-3--3-3-3-3--2-2-2-2--2-2-2-2--3-3-3-3--3-3-3-3--5-5-5-5--5-5-5-5---|
Db|--------------------2-2-2-2--2-2-2-2--------------------5-5-5-5--4-4-4-4---|

Bridge: Guitar 1 (Distorted) PLAY 1 TIME
Eb|---------------------------------------------------------------------------|
Bb|---------------------------------------------------------------------------|
Gb|--0-0-0-0--0-0-0-0--4-4-4-4--4-4-4-----------------------------------------|
Db|--2-2-2-2--2-2-2-2--4-4-4-4--4-4-4----0------------------------------------|
Ab|--3-3-3-3--3-3-3-3--2-2-2-2--2-2-2----0------------------------------------|
Db|--------------------------------------0------------------------------------|
                                                                              |
Bridge: Guitar 2 (Clean)                                                      |
Eb|---------------------------------------------------------------------------|
Bb|----------------------7---7-7/8-7---7-8------------------------------------|
Gb|--------------------8---8---------9---9------------------------------------|
Db|---------------------------------------------------------------------------|
Ab|---------------------------------------------------------------------------|
Db|---------------------------------------------------------------------------|

Chorus: Guitar 1 (Distorted) PLAY 1 TIME
Eb|---------------------------------------------------------------------------|
Bb|---------------------------------------------------------------------------|
Gb|--4---------------------------------------0-0-0-0-0-0-0-0-4-4-4-4-4-4-4----|
Db|--2-----------------------5---------------2-2-2-2-2-2-2-2-4-4-4-4-4-4-4-0--|
Ab|--2-----------------------5---------------3-3-3-3-3-3-3-3-2-2-2-2-2-2-2-0--|
Db|--2-----------------------5---------------------------------------------0--|
                                                                              |
Chorus: Guitar 2 (Clean)                                                      |
Eb|------------------------------------------7-7-7-8-8-5-5-5------------------|
Bb|----------------------------------------------------------7-7-7-7-8-7-8-7--|
Gb|---------------------------------------------------------------------------|
Db|---------------------------------------------------------------------------|
Ab|---------------------------------------------------------------------------|
Db|---------------------------------------------------------------------------|

Chorus: Guitar 1 (Distorted) PLAY 1 TIME
Eb|---------0-----------------------0-----------------------------------------|
Bb|---------0-----------------------0-----------------------------------------|
Gb|--4---------------------------------------0-0-0-0-0-0-0-0-4-4-4-4-4-4-4----|
Db|--2-----------------------5---------------2-2-2-2-2-2-2-2-4-4-4-4-4-4-4-0--|
Ab|--2-----------------------5---------------3-3-3-3-3-3-3-3-2-2-2-2-2-2-2-0--|
Db|--2-----------------------5---------------------------------------------0--|
                                                                              |
Chorus: Guitar 2 (Clean)                                                      |
Eb|------------------------------------------7-7-7-8-8-5-5-5------------------|
Bb|----------------------------------------------------------7-7-7-7-8-7-8-7--|
Gb|---------------------------------------------------------------------------|
Db|---------------------------------------------------------------------------|
Ab|---------------------------------------------------------------------------|
Db|---------------------------------------------------------------------------|

Outro Chorus: Guitar 1 (Distorted) PLAY 2 TIMES
Eb|---------0-----------------------0-----------------------------------------|
Bb|---------0-----------------------1-----------------------------------------|
Gb|--4-----------------------0------0------------------------4-4-4-4-4-4-4----|
Db|--2-----------------------2---------------5-5-5-5-5-5-5-5-4-4-4-4-4-4-4-0--|
Ab|--2-----------------------3---------------5-5-5-5-5-5-5-5-2-2-2-2-2-2-2-0--|
Db|--2---------------------------------------5-5-5-5-5-5-5-5---------------0--|
                                                                              |
Outro Chorus: Guitar 2 (Clean)                                                |
Eb|------------------------------------------7-7-7-8-8-5-5-5------------------|
Bb|----------------------------------------------------------7-7-7-7-8-7-8-7--|
Gb|---------------------------------------------------------------------------|
Db|---------------------------------------------------------------------------|
Ab|---------------------------------------------------------------------------|
Db|---------------------------------------------------------------------------|

Outro: Guitar 1 (Distorted)
Eb|---------------------------------------------------------------------------|
Bb|----------------------------------------3--0-------------------------------|
Gb|--0-0-0-0-0-0-0-0--0-0--4--0-0--4------------------------------------------|
Db|--2-2-2-2-2-2-2-2--2-2--4--2-2--4------------------------------------------|
Ab|--3-3-3-3-3-3-3-3--3-3--2--3-3--2----3-------------------------------------|
Db|---------------------------------------------------------------------------|

Finished
Tap to rate this tab
 
# A B C D E F G H I J K L M N O P Q R S T U V W X Y Z