Song name
# A B C D E F G H I J K L M N O P Q R S T U V W X Y Z

Breaking Benjamin - Lights Out tab

-------------------------------------------------------------------------------
			     Lights Out (Solo) - Breaking Benjamin 
-------------------------------------------------------------------------------
Tabbed by: Noname3415 (Nick)
Email: nvillone1@yahoo.com

Tuning: Bb (Bb F Bb Eb G C)


Hey this is my first tab so go easy on me ;) As far as I know this is the first 
tab of "lights out" with the solo.
 But yeah I think its fairly accurate I did this by ear in about 20 minutes fairly easy
but it can take awhile to get down. Rate, Comment, and most of all ENJOY! :D 

Oh yeah, and ill try and tab out the whole song when I have time but until now 
here is a fairly accurate tab of the
song by another person

http://www.ultimate-guitar.com/tabs/b/breaking_benjamin/lights_out_tab_878620id_01102009date.htm


e|------------------------------------------------------------------------------------|
B|-----------------13-------15-13-11-10----10h11h10----10-----------------------------|
G|--------11-12-11----12-11-------------12----------12--------------------------------|
D|-----12-----------------------------------------------------------------------------|
A|---------------------------------------------------------13(x4)-12(x4)-10(x4)-12(x4)|
E|------------------------------------------------------------------------------------|

e|-----------------------------------------12b-10-12-13(x4)-12(x4)--------12(x4)-10(x3)-11-10/---|
B|-----------------13-------15-13-11-10----------------------------13(x4)------------------------|
G|--------11-12-11----12-11-------------12-------------------------------------------------------|
D|-----12----------------------------------------------------------------------------------------|
A|-----------------------------------------------------------------------------------------------|
E|-----------------------------------------------------------------------------------------------|



| /  slide up
| \  slide down
| h  hammer-on
| p  pull-off
| ~  vibrato
| +  harmonic
| x  Mute note
===============================================================================
Tap to rate this tab
# A B C D E F G H I J K L M N O P Q R S T U V W X Y Z