Song name
# A B C D E F G H I J K L M N O P Q R S T U V W X Y Z

Breaking Benjamin - I Will Not Bow tab

Breaking Benjamin
I Will Not Bow
Tabbed by thepook84
Tuning Bb F Bb Eb G C

I made some corrections off the U B band tab. That was the most accurate one. So thanks 
them.  This tab is prob 99% if not 100% correct now.  I saw them play it live and have 
recorded.  But then again feel free to make corrections if you do not think so.

The solo came from the U B band it sounded right but i could not see it good from the video.

I tabbed it for a 1 guitar band except for the solo part. I have the rythm for that.

Legend
h-hammer on       p-pull off       *-harmonic       PH-pinch harmonic

Intro: Guitar 1  BEN
 C|-------------------------------------------------------------------|
 G|-------------------------------------------------------------------|
Eb|-------------------------------------------------------------------|
Bb|-------------------------------------------------------------------|
 F|-----------------------3---------------------5---------------------|
Bb|--0h2-2-2-3p2-2-2-0h2----0h2-2-2-3p2-2-2-0h2-----------------------|

 C|-------------------------------------------------------------------|
 G|-------------------------------------------------------------------|
Eb|-------------------------------------------------------------------|
Bb|----------------------------------0-0-0----------------------------|
 F|-----------------------3----------0-0-0----------------------------|
Bb|--0h2-2-2-3p2-2-2-0h2----0h2-2-2--0-0-0----------------------------|


Intro: Part 2
 C|-------------------------------------------------------------------|
 G|-------------------------------------------------------------------|
Eb|-------------------------------------------------------------------|
Bb|-------------------------------------------------------------------|
 F|--0--2--2--0--3--2--2--0--2--3--3---0--2--2--0--3--2--2--0--5------|
Bb|--0--2--2--0--3--2--2--0--2--3------0--2--2--0--3--2--2--0--5------|

Intro: Cont Part 2 Here are the chords. You can figure out the rythem
 C|-------------------------------------------------------------|
 G|--14--------13--------12------9------------------------------|
Eb|--13--------13--------12------9------------------------------|
Bb|--11--------11--------10------7------------7--0--3--0--2-----|
 F|--11--------11--------10------7------------7--0--3--0--2-----|
Bb|--11--------11--------10------7------------7--0--3--0--2-----|


Verse 1:
 C|--------------------------------------------------------------0----|
 G|----------------------------------------------------------3--------|
Eb|---------------------------------------5------------------2--------|
Bb|-(2)-----------------------------------5------------------0--------|
 F|-(2)-----------------------------------3------------------0--------|
Bb|-(2)------------------------------------------------------0--------|

Verse 1: Continued
 C|--------------------------------------------------------------0----|
 G|----------------------------------------------------------3--------|
Eb|--4------------------------------------5------------------2--------|
Bb|--2------------------------------------5------------------0--------|
 F|--2------------------------------------3------------------0--------|
Bb|--2-------------------------------------------------------0--------|

Verse 1: Part 2  4x
 C|-------------------------------------------------------------------|
 G|-------------------------------------------------------------------|
Eb|-------------------------------------------------------------------|
Bb|-------------------------------------------------------------------|
 F|--2---2---2-------------5---------2---2---2-------------5----------|
Bb|--2---2---2-------0h5h7---7p5p0---2---2---2-------0h5h7------------|

Pre Chorus: You figure out strumming
 C|---------------------------------------------------------------------|
 G|-------------------3--------------------------------3----------------|
Eb|--5----------------2---------------5----------------2-----------2----|
Bb|--5----------------0---------------5----------------0-----------0----|
 F|--3----------------0---------------3----------------0-----------0----|
Bb|-------------------0--------------------------------0-----------0----|

Chorus:Ben strumming may not be exact. figure it out

 C|--------------------------------------------I will NOT-------------|
 G|-----------------3---------3------------------------3--------------|
Eb|------------4----2---------2---5-strum--------------2--------------|
Bb|--2---2---2-2----0---0---0-0---5-strum--------------0-strummed once|
 F|--2---2---2-2----0---0---0-0---3-strum--------------0--------------|
Bb|--2---2---2-2----0---0---0-0------------------------0--------------|

Chorus continued:
 C|-------------------------------------------------FALL!!!-----------|
 G|-----------------3---------3---------------------------------------|
Eb|-Bow--------4----2---------2---5-strum--------------7--------------|
Bb|--2---2---2-2----0---0---0-0---5-strum--------------5-strummed once|
 F|--2---2---2-2----0---0---0-0---3-strum--------------5--------------|
Bb|--2---2---2-2----0---0---0-0------------------------5--------------|


Post Chorus:
 C|-------------------------------------------------------------------|
 G|-------------------------------------------------------------------|
Eb|-------------------------------------------------------------------|
Bb|-------------------------------------------------------------------|
 F|--0--2--2--0--3--2--2--0--2--3--3---0--2--2--0--3--2--2--0--5------|
Bb|--0--2--2--0--3--2--2--0--2--3------0--2--2--0--3--2--2--0--5------|

Post Chorus Continued

 C|-------------------------------------------------------------|
 G|--14--------13--------12------9------------------------------|
Eb|--13--------13--------12------9------------------------------|
Bb|--11--------11--------10------7------------7--0--3--0--2-----|
 F|--11--------11--------10------7------------7--0--3--0--2-----|
Bb|--11--------11--------10------7------------7--0--3--0--2-----|

Verse 2: Guitar 1 (Distorted)
 C|--------------------------------------------------------------0----|
 G|----------------------------------------------------------3--------|
Eb|---------------------------------------5------------------2--------|
Bb|-(2)-----------------------------------5------------------0--------|
 F|-(2)-----------------------------------3------------------0--------|
Bb|-(2)------------------------------------------------------0--------|

Verse 2: Part 2
 C|---------------------------------------------------------------------|
 G|---------------------------------------------------------------------|
Eb|----------------------x-x-----------------------------------------x-x|
Bb|----------------------x-x-0--4--5---10-10-10--10--10-10-10--10-10-x-x|
 F|-2-2-2--2--2-2-2--2-2-x-x-0--4--5---10-10-10--10--10-10-10--10-10-x-x|
Bb|-2-2-2--2--2-2-2--2-2-x-x-0--4--5---10-10-10--10--10-10-10--10-10-x-x|

Verse 2: Part 2 Continued
 C|--------|
 G|--------|
Eb|--------|
Bb|--0-5-5-|
 F|--0-5-4-|
Bb|--0-5-5-|

Pre Chorus: Play the same as the other pre chorus!!!

                                                                      |
Chorus 2: Play 2x
 C|--------------------------------------------I will NOT-------------|
 G|-----------------3---------3------------------------3--------------|
Eb|------------4----2---------2---5-strum--------------2--------------|
Bb|--2---2---2-2----0---0---0-0---5-strum--------------0-strummed once|
 F|--2---2---2-2----0---0---0-0---3-strum--------------0--------------|
Bb|--2---2---2-2----0---0---0-0------------------------0--------------|

Chorus 2 continued:
 C|------------------------------------------and ill SURVIVE----------|
 G|-----------------3---------3---------------------------------------|
Eb|-Bow--------4----2---------2---5-strum--------------7--------------|
Bb|--2---2---2-2----0---0---0-0---5-strum--------------5-strummed once|
 F|--2---2---2-2----0---0---0-0---3-strum--------------5--------------|
Bb|--2---2---2-2----0---0---0-0------------------------5--------------|


Bridge:
 C|------------------------------------------------------------------|
 G|------------------------------------------------------------------|
Eb|------------------------------------------------------------------|
Bb|-----------------7PH--6---------------------------0--3--0---------|
 F|--7----10----7-----------7PH---7--10----7---------0--3--0---------|
Bb|--------------------------------------------------0--3--0---------|

Bridge: CONTINUED play 3x
 C|-------------------------------------------------------------------|
 G|-------------------------------------------------------------------|
Eb|-----------------------------9/10------------7/10------------------|
Bb|-----------------------------X/x-fast strum--x/x---fast strum------|
 F|--2--5--2--8--7--3--2--5--2--7/8-------------5/8-------------------|
Bb|--2--5--2--8--7--3--2--5--2----------------------------------------|

Bridge 4th Time
 C|------------------------------I wii NOT----------------------------|
 G|------------------------------3------------------------------------|
Eb|------------------------------2-----7------------------------------|
Bb|------------------------------0-----5------------------------------|
 F|--2--5--2--8--7--3--2--5--2---0-----5------------------------------|
Bb|--2--5--2--8--7--3--2--5--2---0-----5------------------------------|

Bridge/Solo: Guitar 2 (Distorted)
 C|--12-----15--14----15-/19--15--14--/17--15--14---12-----15--14-----|
 G|-------------------------------------------------------------------|
Eb|-------------------------------------------------------------------|
Bb|-------------------------------------------------------------------|
 F|-------------------------------------------------------------------|
Bb|-------------------------------------------------------------------|

Bridge/Solo: Guitar 2 (Distorted)
 C|--14-10----10-14-15-14-10-14-10----10-14-10---------12-----15--14--|
 G|--------12----------------------12----------12-15------------------|
Eb|-------------------------------------------------------------------|
Bb|-------------------------------------------------------------------|
 F|-------------------------------------------------------------------|
Bb|-------------------------------------------------------------------|

Bridge/Solo: Guitar 2 (Distorted)
 C|--15-/19--15--14--/20--15--14----------12--14----------------------|
 G|--------------------------------12--------------------13-12--------|
Eb|------------------------------------------------12-14-------14-12--|
Bb|-------------------------------------------------------------------|
 F|-------------------------------------------------------------------|
Bb|-------------------------------------------------------------------|

Bridge/Solo: Guitar 2 (Distorted)
 C|-------------------------------------------------------------------|
 G|-------------------------------------------------------------------|
Eb|-----12-14-12-11-12-11----9-11--9*---------------------------------|
Bb|--14-------------------12------------------------------------------|
 F|-------------------------------------------------------------------|
Bb|-------------------------------------------------------------------|


Chorus 3:
 C|--------------------------------------------I will NOT--------------|
 G|---------------(3)-(3)-(3)-(3)-----------------------3--------------|
Eb|----------------2---2---2---2---5-strum--------------2--------------|
Bb|--2--2--2--2----0---0---0---0---5-strum--------------0-strummed once|
 F|--2--2--2--2----0---0---0---0---3-strum--------------0--------------|
Bb|--2--2--2--2----0---0---0---0------------------------0--------------|

Chorus 2 continued:
 C|--------------------------------------------and ill SURVIVE--------|
 G|-----------------3---------3------------------------3--------------|
Eb|-Bow--------4----2---------2---5-strum--------------2--------------|
Bb|--2---2---2-2----0---0---0-0---5-strum--------------0-strummed once|
 F|--2---2---2-2----0---0---0-0---3-strum--------------0--------------|
Bb|--2---2---2-2----0---0---0-0------------------------0--------------|

Chorus 3 continued
 C|---------------------------------------I  Have   Lost.....and im  NOT-|
 G|------------------------3---------3-------------------------------3---|
Eb|-Paranoid----------4----2---------2----5--7------4----------------2---|
Bb|---------2---2---2-2----0---0---0-0----4--5------3----------------0---|
 F|---------2---2---2-2----0---0---0-0----4--5------3----------------0---|
Bb|---------2---2---2-2----0---0---0-0----4--5------3----------------0---|

Chorus 3 continued:
 C|-------------------------------I Will   SHUT ---......away-------|
 G|----------------3---------3--------------------------------------|
Eb|-Proud-----4----2---------2----5--7------4-----------------------|
Bb|-2---2---2-2----0---0---0-0----4--5------3----------------0000---|
 F|-2---2---2-2----0---0---0-0----4--5------3----------------0000---|
Bb--2---2---2-2----0---0---0-0----4--5------3----------------0000---|

                                                                            Outro: this 
what ben plays
 C|---------------------------------------------------------------------|
 G|---------------------------------------------------------------------|
Eb|---------------------------------------------------------------------|
Bb|---------------------------------------------------------------------|
 F|--3p2p0-0-2-3-2-0-2---3p2p0-0-2-7p5p00-7p5p00-3-2--------------------|
Bb|--3p2p0-0-2---2-0-2---3p2p0-0-2-7p5p00-7p5p00-3-2--------------------|
Tap to rate this tab
 
# A B C D E F G H I J K L M N O P Q R S T U V W X Y Z