Song name
# A B C D E F G H I J K L M N O P Q R S T U V W X Y Z

Breaking Benjamin - Anthem Of The Angels tab

-------------------------------------------------------------------------------
			     Anthem Of The Angels - Breaking Benjamin
-------------------------------------------------------------------------------
Tabbed by: Tom Stuczynski
Email: TomStuchinski@yahoo.com

This is not a complete tab showing both guitar parts. However, this will allow
you to play a pretty decent version of this song using only one guitar. The strumming
is not shown, but if you play along with it you should be able to figure it out pretty easily.

Tuning: Drop C (C G C F A D)

Intro - played by violins (except last note)

D|---------------------------------------------------------------------------|
A|---7---10-9-7---10-14~-----------------------------------------------------|
F|---------------------------------------------------------------------------|
C|---------------------------------------------------------------------------|
G|---------------------------------------------------------------------------|
C|---------------------------------------------------------------------------|

Intro continued
D|---------------------------------------------------------------------------|
A|---------------------------------------------------------------------------|
F|---------------------------------------------------------------------------|
C|--0-0-0---2---2-2-4-4----7-6-2-4---0-0-0---2---2-2-4-4----7-6-7-9----------|
G|--0-0-0---2---2-2-4-4----7-6-2-4---0-0-0---2---2-2-4-4----7-6-7-9----------|
C|--0-0-0---2---2-2-4-4----7-6-2-4---0-0-0---2---2-2-4-4----7-6-7-9----------|

D|-----------------------------------------------------------------------------|
A|-----------------------------------------------------------------------------|
F|-----------------------------------------------------------------------------|
C|--0-0-0---2---2-2-4-4----7-6-2-4---0-0-0---2---2-2-4-4----7-6-2--0-----------|
G|--0-0-0---2---2-2-4-4----7-6-2-4---0-0-0---2---2-2-4-4----7-6-2--0-----------|
C|--0-0-0---2---2-2-4-4----7-6-2-4---0-0-0---2---2-2-4-4----7-6-2--0-----------|

Verse: No guitar, but this is what the chords are...
D|---------------------------------------------------------------------------|
A|---------------------------------------------------------------------------|
F|---------------------------------------------------------------------------|
C|--0--2--4------------------------------------------------------------------|
G|--0--2--4------------------------------------------------------------------|
C|--0--2--4------------------------------------------------------------------|

Chorus:
D|------------------------------------------------------------------------------|
A|------------------------------------------------------------------------------|
F|------------------------------------------------------------------------------|
C|---4-6--7------------------------------------11-------4--------2--------------|
G|---4-6--7------------------------------------11-------4--------2--------------|
C|---4-6--7------------------------------------11-------4--------2--------------|
		            there is nothing left of         "you"    "eyes"   "anthem"


D|---------------------------------------------------------------------------|
A|---------------------------------------------------------------------------|
F|---------------------------------------------------------------------------|
C|--------0----------2-------------------------------------------------------|
G|--------0----------2-------------------------------------------------------|
C|--------0----------2-------------------------------------------------------|
	       "angels"   "last goodbye"


Verse chords can be played again here or you can do the lead guitar...
D|---------------------------------------------------------------------------|
A|---10-9---------------------------10-9-------------------------------------|
F|--------9------------------------------9----9/11~--------------------------|
C|-----------11-------11-------------------10--------------------------------|
G|--------------11-12----12-11-12--------------------------------------------|
C|---------------------------------------------------------------------------|

verse 2 ...

then

Chorus 2
D|------------------------------------------------------------------------------|
A|------------------------------------------------------------------------------|
F|------------------------------------------------------------------------------|
C|---4-6--7------------------------------------11-------4--------2--------------|
G|---4-6--7------------------------------------11-------4--------2--------------|
C|---4-6--7------------------------------------11-------4--------2--------------|
		             there is nothing left of       "you"    "eyes"    "anthem"


D|------------------------------------------------------------------------------|
A|------------------------------------------------------------------------------|
F|------------------------------------------------------------------------------|
C|--------0----------2-------7-------7-------11-------4----------2--------------|
G|--------0----------2-------7-------7-------11-------4----------2--------------|
C|--------0----------2-------7-------7-------11-------4----------2--------------|
	        "angels" "last goodbye" ..i keep   "you"   "life"    "anthem"
D|------------------------------------------------------------------------------|
A|------------------------------------------------------------------------------|
F|------------------------------------------------------------------------------|
C|---0--------------------------------------------------------------------------|
G|---0--------------------------------------------------------------------------|
C|---0--------------------------------------------------------------------------|
  "angels"

bridge/interlude
D|---------------------------------------------------------------------------|
A|------------------------------(10-9)---------------------------------------|
F|---------------------------------------------------------------------------|
C|---4--6--7--2----2-0---2-0-------------------------------------------------|
G|---4--6--7--2----2-0---2-0-------------------------------------------------|
C|---4--6--7--2----2-0---2-0-------------------------------------------------|
this repeats 4x

D|---------------------------------------------------------------------------|
A|---------------------------------------------------------------------------|
F|---------------------------------------------------------------------------|
C|---6--7--------------------------------------------------------------------|
G|---6--7--------------------------------------------------------------------|
C|---6--7--------------------------------------------------------------------|
   Electric guitar ends on this


Acoustic part
D|---------------------------------------------------------------------------|
A|---------------------------------------------------------------------------|
F|---------------------------------------------------------------------------|
C|--7----11------4---2--0-----6-7----11-----4--2--0-2---4--2--0----4--2--0---|
G|--7----11------4---2--0-----6-7----11-----4--2--0-2---4--2--0----4--2--0---|
C|--7----11------4---2--0-----6-7----11-----4--2--0-2---4--2--0----4--2--0---|
	     electric comes back in

| /  slide up
| \  slide down
| h  hammer-on
| p  pull-off
| ~  vibrato
| +  harmonic
| x  Mute note
===============================================================================
Tap to rate this tab
# A B C D E F G H I J K L M N O P Q R S T U V W X Y Z