Song name
# A B C D E F G H I J K L M N O P Q R S T U V W X Y Z

Breaking Benjamin - Lights Out tab

Breaking Benjamin
Lights Out
Tabbed by U B the band
Tuning Bb F Bb Eb G C

Legend
/-slide up           b-bend           ()-bend to          \-slide down

Intro: Guitars 1 & 2 (Distorted)
 C|-------------------------------------------------------------------|
 G|-------------------------------------------------------------------|
Eb|-------------------------------------------------------------------|
Bb|-------------------------------------------------------------------|
 F|------------------5-------3-5-6--------------------5-------5-6-3---|
Bb|--0--1--0--0-4-0----3-0-7----------0--1--0--0-4-0----3-0-7---------|

Verse 1: Guitar 1 (Distorted)
 C|-------------------------------------------------------------------|
 G|-------------------------------------------------------------------|
Eb|-------------------------------------------------------------------|
Bb|-------------------------------------------------------------------|
 F|----3-5----3----5/6----5----3-5-----3-5----3----5/6----5----3-5----|
Bb|--0------0----0------0----0-------3------3----3------3----3--------|
                                                                      |
Verse 1: Guitar 2 (Distorted)                                         |
 C|-------------------------------------------------------------------|
 G|----------------------------------10----------------------11-------|
Eb|--7----------------------------------------------------------------|
Bb|-------------------------------------------------------------------|
 F|-------------------------------------------------------------------|
Bb|-------------------------------------------------------------------|

Verse 1: Guitar 1 (Distorted)
 C|-------------------------------------------------------------------|
 G|-------------------------------------------------------------------|
Eb|-------------------------------------------------------------------|
Bb|---------------------------------1---0--0--0---0--0--0---0--0--1---|
 F|----3-5----3----5/6----5----3-5--1---0--0--0---0--0--0---0--0--1---|
Bb|--5------5----5------5----5------1---0--0--0---0--0--0---0--0--1---|
                                                                      |
Verse 1: Guitar 2 (Distorted)                                         |
 C|-------------------------------------------------------------------|
 G|--8----------------------------------------------------------------|
Eb|-------------------------------------------------------------------|
Bb|---------------------------------1---0--0--0---0--0--0---0--0--1---|
 F|---------------------------------1---0--0--0---0--0--0---0--0--1---|
Bb|---------------------------------1---0--0--0---0--0--0---0--0--1---|

Verse 1: Guitar 1 (Distorted)
 C|-------------------------------------------------------------------|
 G|-------------------------------------------------------------------|
Eb|-------------------------------------------------------------------|
Bb|-------------------------------------------------------------------|
 F|----3-5----3----5/6----5----3-5-----3-5----3----5/6----5----3-5----|
Bb|--0------0----0------0----0-------3------3----3------3----3--------|
                                                                      |
Verse 1: Guitar 2 (Distorted)                                         |
 C|-------------------------------------------------------------------|
 G|----------------------------------10----------------------11-------|
Eb|--7----------------------------------------------------------------|
Bb|-------------------------------------------------------------------|
 F|-------------------------------------------------------------------|
Bb|-------------------------------------------------------------------|

Verse 1: Guitar 1 (Distorted)
 C|-------------------------------------------------------------------|
 G|-------------------------------------------------------------------|
Eb|-------------------------------------------------------------------|
Bb|---------------------------------1---0--1--0--0--0--0---0--1--0--3-|
 F|----3-5----3----5/6----5----3-5--1---0--1--0--0--0--0---0--1--0--3-|
Bb|--5------5----5------5----5------1---0--1--0--0--0--0---0--1--0--3-|
                                                                      |
Verse 1: Guitar 2 (Distorted)                                         |
 C|-------------------------------------------------------------------|
 G|--8----------------------------------------------------------------|
Eb|-------------------------------------------------------------------|
Bb|---------------------------------1---0--1--0---0--0--0---0--0--1---|
 F|---------------------------------1---0--1--0---0--0--0---0--0--1---|
Bb|---------------------------------1---0--1--0---0--0--0---0--0--1---|

Pre Chorus: Guitar 1 (Distorted) PLAY 2 TIMES
 C|-------------------------------------------------------------------|
 G|-------------------------------------------------------------------|
Eb|--10--10--10--10--10--10--10--10--12--12--12--12--12--12--12--12---|
Bb|--8---8---8---8---8---8---8---8---10--10--10--10--10--10--10--10---|
 F|--8---8---8---8---8---8---8---8---10--10--10--10--10--10--10--10---|
Bb|--8---8---8---8---8---8---8---8---10--10--10--10--10--10--10--10---|
                                                                      |
Pre Chorus: Guitar 2 (Distorted) PLAY 2 TIMES                         |
 C|-------------------------------------------------------------------|
 G|--6-6-6-6-6-6-6-6-6-6-6-6-10101010-8-8-8-8-8-8-8-8-8-8-8-8-10101010|
Eb|--x-x-x-x-x-x-x-x-x-x-x-x--x-x-x-x-x-x-x-x-x-x-x-x-x-x-x-x--x-x-x-x|
Bb|--3-3-3-3-3-3-3-3-3-3-3-3--7-7-7-7-5-5-5-5-5-5-5-5-5-5-5-5--7-7-7-7|
 F|-------------------------------------------------------------------|
Bb|-------------------------------------------------------------------|

Pre Chorus: Guitar 1 (Distorted)
 C|-------------------------------------------------------------------|
 G|-------------------------------------------------------------------|
Eb|-------------------------------------------------------------------|
Bb|--0---0---0---0---0---0---0---0---0---0---0---0---0---0---0---0----|
 F|--0---0---0---0---0---0---0---0---0---0---0---0---0---0---0---0----|
Bb|--0---0---0---0---0---0---0---0---0---0---0---0---0---0---0---0----|
                                                                      |
Pre Chorus: Guitar 2 (Distorted)                                      |
 C|-------------------------------------------------------------------|
 G|--7-7-7-7-7-7-7-7-7-7-7-7-7-7-7-7-3-3-3-3-3-3-3-3-3-3-3-3-5-5-5-5--|
Eb|--x-x-x-x-x-x-x-x-x-x-x-x-x-x-x-x-x-x-x-x-x-x-x-x-x-x-x-x-x-x-x-x--|
Bb|--4-4-4-4-4-4-4-4-4-4-4-4-4-4-4-4-0-0-0-0-0-0-0-0-0-0-0-0-2-2-2-2--|
 F|-------------------------------------------------------------------|
Bb|-------------------------------------------------------------------|

Pre Chorus: Guitar 1 (Distorted) PLAY 1 TIME
 C|-------------------------------------------------------------------|
 G|-------------------------------------------------------------------|
Eb|--10--10--10--10--10--10--10--10--12--12--12--12--12--12--12--12---|
Bb|--8---8---8---8---8---8---8---8---10--10--10--10--10--10--10--10---|
 F|--8---8---8---8---8---8---8---8---10--10--10--10--10--10--10--10---|
Bb|--8---8---8---8---8---8---8---8---10--10--10--10--10--10--10--10---|
                                                                      |
Pre Chorus: Guitar 2 (Distorted) PLAY 1 TIME                          |
 C|-------------------------------------------------------------------|
 G|--6-6-6-6-6-6-6-6-6-6-6-6-6-6-6-6-8-8-8-8-8-8-8-8-8-8-8-8-8-8-8-8--|
Eb|--x-x-x-x-x-x-x-x-x-x-x-x-x-x-x-x-x-x-x-x-x-x-x-x-x-x-x-x-x-x-x-x--|
Bb|--3-3-3-3-3-3-3-3-3-3-3-3-3-3-3-3-5-5-5-5-5-5-5-5-5-5-5-5-5-5-5-5--|
 F|-------------------------------------------------------------------|
Bb|-------------------------------------------------------------------|

Chorus: Guitar 1 (Distorted) PLAY ENTIRE CHORUS 2 TIMES
 C|-------------------------------------------------------------------|
 G|-------------------------------------------------------------------|
Eb|--14--14--14--14--14--14--14--14--14--14--14--14--14--14--14--14---|
Bb|--12--12--12--12--12--12--12--12--12--12--12--12--12--12--12--12---|
 F|--12--12--12--12--12--12--12--12--12--12--12--12--12--12--12--12---|
Bb|--12--12--12--12--12--12--12--12--12--12--12--12--12--12--12--12---|
                                                                      |
Chorus: Guitar 2 (Distorted)                                          |
 C|-------------------------------------------------------------------|
 G|-------------------------------------------------------------------|
Eb|--14--14--14--14--14--14--14--14--14--14--14--14--14--14--14--14---|
Bb|---x---x---x---x---x---x---x---x---x---x---x---x---x---x---x---x---|
 F|--12--12--12--12--12--12--12--12--12--12--12--12--12--12--12--12---|
Bb|-------------------------------------------------------------------|

Chorus: Guitar 1 (Distorted)
 C|-------------------------------------------------------------------|
 G|--10--10--10--10--10--10--10--10-----------------------------------|
Eb|--10--10--10--10--10--10--10--10--12--12--12--12--12--12--12--12---|
Bb|--8---8---8---8---8---8---8---8---10--10--10--10--10--10--10--10---|
 F|--8---8---8---8---8---8---8---8---10--10--10--10--10--10--10--10---|
Bb|--8---8---8---8---8---8---8---8---10--10--10--10--10--10--10--10---|
                                                                      |
Chorus: Guitar 2 (Distorted)                                          |
 C|-------------------------------------------------------------------|
 G|-------------------------------------------------------------------|
Eb|--14--14--14--14--14--14--14--14--12--12--12--12--12--12--12--12---|
Bb|---x---x---x---x---x---x---x---x---x---x---x---x---x---x---x---x---|
 F|--12--12--12--12--12--12--12--12--10--10--10--10--10--10--10--10---|
Bb|-------------------------------------------------------------------|

Chorus: Guitar 1 (Distorted)
 C|-------------------------------------------------------------------|
 G|-------------------------------------------------------------------|
Eb|--14--14--14--14--14--14--14--14--14--14--14--14--14--14--14--14---|
Bb|--12--12--12--12--12--12--12--12--12--12--12--12--12--12--12--12---|
 F|--12--12--12--12--12--12--12--12--12--12--12--12--12--12--12--12---|
Bb|--12--12--12--12--12--12--12--12--12--12--12--12--12--12--12--12---|
                                                                      |
Chorus: Guitar 2 (Distorted)                                          |
 C|-------------------------------------------------------------------|
 G|-------------------------------------------------------------------|
Eb|--11--11--11--11--11--11--11--11--11--11--11--11--11--11--11--11---|
Bb|---x---x---x---x---x---x---x---x---x---x---x---x---x---x---x---x---|
 F|---9---9---9---9---9---9---9---9---9---9---9---9---9---9---9---9---|
Bb|-------------------------------------------------------------------|

Chorus: Guitar 1 (Distorted)
 C|-------------------------------------------------------------------|
 G|--10--10--10--10--10--10--10--10-----------------------------------|
Eb|--10--10--10--10--10--10--10--10--12--12--12--12--12--12--12--12---|
Bb|--8---8---8---8---8---8---8---8---10--10--10--10--10--10--10--10---|
 F|--8---8---8---8---8---8---8---8---10--10--10--10--10--10--10--10---|
Bb|--8---8---8---8---8---8---8---8---10--10--10--10--10--10--10--10---|
                                                                      |
Chorus: Guitar 2 (Distorted)                                          |
 C|-------------------------------------------------------------------|
 G|-------------------------------------------------------------------|
Eb|--14--14--14--14--14--14--14--14--12--12--12--12--12--12--12--12---|
Bb|---x---x---x---x---x---x---x---x---x---x---x---x---x---x---x---x---|
 F|--12--12--12--12--12--12--12--12--10--10--10--10--10--10--10--10---|
Bb|-------------------------------------------------------------------|

Post Chorus: Guitars 1 & 2 (Distorted) PLAY 2 TIMES
 C|-------------------------------------------------------------------|
 G|-------------------------------------------------------------------|
Eb|-------------------------------------------------------------------|
Bb|-------------------------------------------------------------------|
 F|------------------5-------3-5-6--------------------5-------5-6-3---|
Bb|--0--1--0--0-4-0----3-0-7----------0--1--0--0-4-0----3-0-7---------|

Verse 2: Guitar 1 (Distorted)
 C|-------------------------------------------------------------------|
 G|-------------------------------------------------------------------|
Eb|-------------------------------------------------------------------|
Bb|-------------------------------------------------------------------|
 F|----3-5----3----5/6----5----3-5-----3-5----3----5/6----5----3-5----|
Bb|--0------0----0------0----0-------3------3----3------3----3--------|
                                                                      |
Verse 2: Guitar 2 (Distorted)                                         |
 C|-------------------------------------------------------------------|
 G|----------------------------------10----------------------11-------|
Eb|--7----------------------------------------------------------------|
Bb|-------------------------------------------------------------------|
 F|-------------------------------------------------------------------|
Bb|-------------------------------------------------------------------|

Verse 2: Guitar 1 (Distorted)
 C|-------------------------------------------------------------------|
 G|-------------------------------------------------------------------|
Eb|-------------------------------------------------------------------|
Bb|---------------------------------1---0--0--0---0--0--0---0--0--1---|
 F|----3-5----3----5/6----5----3-5--1---0--0--0---0--0--0---0--0--1---|
Bb|--5------5----5------5----5------1---0--0--0---0--0--0---0--0--1---|
                                                                      |
Verse 2: Guitar 2 (Distorted)                                         |
 C|-------------------------------------------------------------------|
 G|--8----------------------------------------------------------------|
Eb|-------------------------------------------------------------------|
Bb|---------------------------------1---0--0--0---0--0--0---0--0--1---|
 F|---------------------------------1---0--0--0---0--0--0---0--0--1---|
Bb|---------------------------------1---0--0--0---0--0--0---0--0--1---|

Verse 2: Guitar 1 (Distorted)
 C|-------------------------------------------------------------------|
 G|-------------------------------------------------------------------|
Eb|-------------------------------------------------------------------|
Bb|-------------------------------------------------------------------|
 F|----3-5----3----5/6----5----3-5-----3-5----3----5/6----5----3-5----|
Bb|--0------0----0------0----0-------3------3----3------3----3--------|
                                                                      |
Verse 2: Guitar 2 (Distorted)                                         |
 C|-------------------------------------------------------------------|
 G|----------------------------------10----------------------11-------|
Eb|--7----------------------------------------------------------------|
Bb|-------------------------------------------------------------------|
 F|-------------------------------------------------------------------|
Bb|-------------------------------------------------------------------|

Verse 2: Guitar 1 (Distorted)
 C|-------------------------------------------------------------------|
 G|-------------------------------------------------------------------|
Eb|-------------------------------------------------------------------|
Bb|---------------------------------1---0--1--0--0--0--0---0--1--0--3-|
 F|----3-5----3----5/6----5----3-5--1---0--1--0--0--0--0---0--1--0--3-|
Bb|--5------5----5------5----5------1---0--1--0--0--0--0---0--1--0--3-|
                                                                      |
Verse 2: Guitar 2 (Distorted)                                         |
 C|-------------------------------------------------------------------|
 G|--8----------------------------------------------------------------|
Eb|-------------------------------------------------------------------|
Bb|---------------------------------1---0--1--0--0--0--0---0--1--0--3-|
 F|---------------------------------1---0--1--0--0--0--0---0--1--0--3-|
Bb|---------------------------------1---0--1--0--0--0--0---0--1--0--3-|

Pre Chorus: Guitar 1 (Distorted) PLAY 2 TIMES
 C|-------------------------------------------------------------------|
 G|-------------------------------------------------------------------|
Eb|--10--10--10--10--10--10--10--10--12--12--12--12--12--12--12--12---|
Bb|--8---8---8---8---8---8---8---8---10--10--10--10--10--10--10--10---|
 F|--8---8---8---8---8---8---8---8---10--10--10--10--10--10--10--10---|
Bb|--8---8---8---8---8---8---8---8---10--10--10--10--10--10--10--10---|
                                                                      |
Pre Chorus: Guitar 2 (Distorted) PLAY 2 TIMES                         |
 C|-------------------------------------------------------------------|
 G|--6-6-6-6-6-6-6-6-6-6-6-6-10101010-8-8-8-8-8-8-8-8-8-8-8-8-10101010|
Eb|--x-x-x-x-x-x-x-x-x-x-x-x--x-x-x-x-x-x-x-x-x-x-x-x-x-x-x-x--x-x-x-x|
Bb|--3-3-3-3-3-3-3-3-3-3-3-3--7-7-7-7-5-5-5-5-5-5-5-5-5-5-5-5--7-7-7-7|
 F|-------------------------------------------------------------------|
Bb|-------------------------------------------------------------------|

Pre Chorus: Guitar 1 (Distorted)
 C|-------------------------------------------------------------------|
 G|-------------------------------------------------------------------|
Eb|-------------------------------------------------------------------|
Bb|--0---0---0---0---0---0---0---0---0---0---0---0---0---0---0---0----|
 F|--0---0---0---0---0---0---0---0---0---0---0---0---0---0---0---0----|
Bb|--0---0---0---0---0---0---0---0---0---0---0---0---0---0---0---0----|
                                                                      |
Pre Chorus: Guitar 2 (Distorted)                                      |
 C|-------------------------------------------------------------------|
 G|--7-7-7-7-7-7-7-7-7-7-7-7-7-7-7-7-3-3-3-3-3-3-3-3-3-3-3-3-5-5-5-5--|
Eb|--x-x-x-x-x-x-x-x-x-x-x-x-x-x-x-x-x-x-x-x-x-x-x-x-x-x-x-x-x-x-x-x--|
Bb|--4-4-4-4-4-4-4-4-4-4-4-4-4-4-4-4-0-0-0-0-0-0-0-0-0-0-0-0-2-2-2-2--|
 F|-------------------------------------------------------------------|
Bb|-------------------------------------------------------------------|

Pre Chorus: Guitar 1 (Distorted) PLAY 1 TIME
 C|-------------------------------------------------------------------|
 G|-------------------------------------------------------------------|
Eb|--10--10--10--10--10--10--10--10--12--12--12--12--12--12--12--12---|
Bb|--8---8---8---8---8---8---8---8---10--10--10--10--10--10--10--10---|
 F|--8---8---8---8---8---8---8---8---10--10--10--10--10--10--10--10---|
Bb|--8---8---8---8---8---8---8---8---10--10--10--10--10--10--10--10---|
                                                                      |
Pre Chorus: Guitar 2 (Distorted) PLAY 1 TIME                          |
 C|-------------------------------------------------------------------|
 G|--6-6-6-6-6-6-6-6-6-6-6-6-6-6-6-6-8-8-8-8-8-8-8-8-8-8-8-8-8-8-8-8--|
Eb|--x-x-x-x-x-x-x-x-x-x-x-x-x-x-x-x-x-x-x-x-x-x-x-x-x-x-x-x-x-x-x-x--|
Bb|--3-3-3-3-3-3-3-3-3-3-3-3-3-3-3-3-5-5-5-5-5-5-5-5-5-5-5-5-5-5-5-5--|
 F|-------------------------------------------------------------------|
Bb|-------------------------------------------------------------------|

Chorus: Guitar 1 (Distorted) PLAY ENTIRE CHORUS 2 TIMES
 C|-------------------------------------------------------------------|
 G|-------------------------------------------------------------------|
Eb|--14--14--14--14--14--14--14--14--14--14--14--14--14--14--14--14---|
Bb|--12--12--12--12--12--12--12--12--12--12--12--12--12--12--12--12---|
 F|--12--12--12--12--12--12--12--12--12--12--12--12--12--12--12--12---|
Bb|--12--12--12--12--12--12--12--12--12--12--12--12--12--12--12--12---|
                                                                      |
Chorus: Guitar 2 (Distorted)                                          |
 C|-------------------------------------------------------------------|
 G|-------------------------------------------------------------------|
Eb|--14--14--14--14--14--14--14--14--14--14--14--14--14--14--14--14---|
Bb|---x---x---x---x---x---x---x---x---x---x---x---x---x---x---x---x---|
 F|--12--12--12--12--12--12--12--12--12--12--12--12--12--12--12--12---|
Bb|-------------------------------------------------------------------|

Chorus: Guitar 1 (Distorted)
 C|-------------------------------------------------------------------|
 G|--10--10--10--10--10--10--10--10-----------------------------------|
Eb|--10--10--10--10--10--10--10--10--12--12--12--12--12--12--12--12---|
Bb|--8---8---8---8---8---8---8---8---10--10--10--10--10--10--10--10---|
 F|--8---8---8---8---8---8---8---8---10--10--10--10--10--10--10--10---|
Bb|--8---8---8---8---8---8---8---8---10--10--10--10--10--10--10--10---|
                                                                      |
Chorus: Guitar 2 (Distorted)                                          |
 C|-------------------------------------------------------------------|
 G|-------------------------------------------------------------------|
Eb|--14--14--14--14--14--14--14--14--12--12--12--12--12--12--12--12---|
Bb|---x---x---x---x---x---x---x---x---x---x---x---x---x---x---x---x---|
 F|--12--12--12--12--12--12--12--12--10--10--10--10--10--10--10--10---|
Bb|-------------------------------------------------------------------|

Chorus: Guitar 1 (Distorted)
 C|-------------------------------------------------------------------|
 G|-------------------------------------------------------------------|
Eb|--14--14--14--14--14--14--14--14--14--14--14--14--14--14--14--14---|
Bb|--12--12--12--12--12--12--12--12--12--12--12--12--12--12--12--12---|
 F|--12--12--12--12--12--12--12--12--12--12--12--12--12--12--12--12---|
Bb|--12--12--12--12--12--12--12--12--12--12--12--12--12--12--12--12---|
                                                                      |
Chorus: Guitar 2 (Distorted)                                          |
 C|-------------------------------------------------------------------|
 G|-------------------------------------------------------------------|
Eb|--11--11--11--11--11--11--11--11--11--11--11--11--11--11--11--11---|
Bb|---x---x---x---x---x---x---x---x---x---x---x---x---x---x---x---x---|
 F|---9---9---9---9---9---9---9---9---9---9---9---9---9---9---9---9---|
Bb|-------------------------------------------------------------------|

Chorus: Guitar 1 (Distorted)
 C|-------------------------------------------------------------------|
 G|--10--10--10--10--10--10--10--10-----------------------------------|
Eb|--10--10--10--10--10--10--10--10--12--12--12--12--12--12--12--12---|
Bb|--8---8---8---8---8---8---8---8---10--10--10--10--10--10--10--10---|
 F|--8---8---8---8---8---8---8---8---10--10--10--10--10--10--10--10---|
Bb|--8---8---8---8---8---8---8---8---10--10--10--10--10--10--10--10---|
                                                                      |
Chorus: Guitar 2 (Distorted)                                          |
 C|-------------------------------------------------------------------|
 G|-------------------------------------------------------------------|
Eb|--14--14--14--14--14--14--14--14--12--12--12--12--12--12--12--12---|
Bb|---x---x---x---x---x---x---x---x---x---x---x---x---x---x---x---x---|
 F|--12--12--12--12--12--12--12--12--10--10--10--10--10--10--10--10---|
Bb|-------------------------------------------------------------------|

Bridge: Guitar 1 (Distorted)
 C|-------------------------------------------------------------------|
 G|-------------------------------------------------------------------|
Eb|-------------------------------------------------------------------|
Bb|-------------------------------------------------------------------|
 F|--3---------0---------10--------0-----0----------------------------|
Bb|--3---------0---------10--------0-----0---10--7---5---7------------|
                                                                      |
Bridge: Guitar 2 (Distorted)                                          |
 C|--------------8--------10--8---------------------------------------|
 G|-----7--8--7-----8--7---------11--10------10b(11)r10------10-------|
Eb|--7-----------------------------------12--------------12-----------|
Bb|-------------------------------------------------------------------|
 F|-------------------------------------------------------------------|
Bb|-------------------------------------------------------------------|

Bridge: Guitar 1 (Distorted)
 C|-------------------------------------------------------------------|
 G|-------------------------------------------------------------------|
Eb|-------------------------------------------------------------------|
Bb|-------------------------------------------------------------------|
 F|---8-8-8-8-8-8-8-8--3-3-3-3--7-7-7-7--3---------0---------10-------|
Bb|---8-8-8-8-8-8-8-8--3-3-3-3--7-7-7-7--3---------0---------10-------|
                                                                      |
Bridge: Guitar 2 (Distorted)                                          |
 C|--------------------------------------------------8--------10--8---|
 G|--11111111-10101010-8-8-8-8-10101010-----7--8--7-----8--7----------|
Eb|---x-x-x-x--x-x-x-x-x-x-x-x--x-x-x-x--7----------------------------|
Bb|---8-8-8-8--7-7-7-7-5-5-5-5--7-7-7-7-------------------------------|
 F|-------------------------------------------------------------------|
Bb|-------------------------------------------------------------------|

Bridge: Guitar 1 (Distorted)
 C|-------------------------------------------------------------------|
 G|-------------------------------------------------------------------|
Eb|-------------------------------------------------------------------|
Bb|--------------------------------------------------------5-5-5-5----|
 F|----0-----0-------------------8-8-8-8-8-8-8-8--3-3-3-3--3-3-3-3----|
Bb|----0-----0---10--7---5---7---8-8-8-8-8-8-8-8--3-3-3-3-------------|
                                                                      |
Bridge: Guitar 2 (Distorted)                                          |
 C|-------------12b(13)r-10--12-13131313-12121212----------12121212---|
 G|--11--10---------------------------------------13131313------------|
Eb|----------12-------------------------------------------------------|
Bb|-------------------------------------------------------------------|
 F|-------------------------------------------------------------------|
Bb|-------------------------------------------------------------------|

Bridge: Guitar 1 (Distorted)
 C|-------------------------------------------------------------------|
 G|-------------------------------------------------------------------|
Eb|-------------------------------------------------------------------|
Bb|-------------------------------------------------------------------|
 F|--0--0--0--1---0---------------------------------------------------|
Bb|--0--0--0--1---0---------------------------------------------------|
                                                                      |
Bridge: Guitar 2 (Distorted)                                          |
 C|--10-10-10-11-10\--------------------------------------------------|
 G|-------------------------------------------------------------------|
Eb|-------------------------------------------------------------------|
Bb|-------------------------------------------------------------------|
 F|-------------------------------------------------------------------|
Bb|-------------------------------------------------------------------|

Chorus 2: Guitar 1 (Distorted)
 C|-------------------------------------------------------------------|
 G|--10--10--10--10--10--10--10--10-----------------------------------|
Eb|--10--10--10--10--10--10--10--10--12--12--12--12--12--12--12--12---|
Bb|--8---8---8---8---8---8---8---8---10--10--10--10--10--10--10--10---|
 F|--8---8---8---8---8---8---8---8---10--10--10--10--10--10--10--10---|
Bb|--8---8---8---8---8---8---8---8---10--10--10--10--10--10--10--10---|
                                                                      |
Chorus 2: Guitar 2 (Distorted)                                        |
 C|-------------------------------------------------------------------|
 G|-------------------------------------------------------------------|
Eb|--14--14--14--14--14--14--14--14--12--12--12--12--12--12--12--12---|
Bb|---x---x---x---x---x---x---x---x---x---x---x---x---x---x---x---x---|
 F|--12--12--12--12--12--12--12--12--10--10--10--10--10--10--10--10---|
Bb|-------------------------------------------------------------------|

Chorus 2: Guitar 1 (Distorted)
 C|-------------------------------------------------------------------|
 G|-------------------------------------------------------------------|
Eb|--14--14--14--14--14--14--14--14--14--14--14--14--14--14--14--14---|
Bb|--12--12--12--12--12--12--12--12--12--12--12--12--12--12--12--12---|
 F|--12--12--12--12--12--12--12--12--12--12--12--12--12--12--12--12---|
Bb|--12--12--12--12--12--12--12--12--12--12--12--12--12--12--12--12---|
                                                                      |
Chorus 2: Guitar 2 (Distorted)                                        |
 C|-------------------------------------------------------------------|
 G|-------------------------------------------------------------------|
Eb|--11--11--11--11--11--11--11--11--11--11--11--11--11--11--11--11---|
Bb|---x---x---x---x---x---x---x---x---x---x---x---x---x---x---x---x---|
 F|---9---9---9---9---9---9---9---9---9---9---9---9---9---9---9---9---|
Bb|-------------------------------------------------------------------|

Chorus 2: Guitar 1 (Distorted)
 C|-------------------------------------------------------------------|
 G|--10--10--10--10--10--10--10--10-----------------------------------|
Eb|--10--10--10--10--10--10--10--10--12--12--12--12--12--12--12--12---|
Bb|--8---8---8---8---8---8---8---8---10--10--10--10--10--10--10--10---|
 F|--8---8---8---8---8---8---8---8---10--10--10--10--10--10--10--10---|
Bb|--8---8---8---8---8---8---8---8---10--10--10--10--10--10--10--10---|
                                                                      |
Chorus 2: Guitar 2 (Distorted)                                        |
 C|-------------------------------------------------------------------|
 G|-------------------------------------------------------------------|
Eb|--14--14--14--14--14--14--14--14--12--12--12--12--12--12--12--12---|
Bb|---x---x---x---x---x---x---x---x---x---x---x---x---x---x---x---x---|
 F|--12--12--12--12--12--12--12--12--10--10--10--10--10--10--10--10---|
Bb|-------------------------------------------------------------------|

Chorus: Guitar 1 (Distorted) PLAY ENTIRE CHORUS 1 TIME
 C|-------------------------------------------------------------------|
 G|-------------------------------------------------------------------|
Eb|--14--14--14--14--14--14--14--14--14--14--14--14--14--14--14--14---|
Bb|--12--12--12--12--12--12--12--12--12--12--12--12--12--12--12--12---|
 F|--12--12--12--12--12--12--12--12--12--12--12--12--12--12--12--12---|
Bb|--12--12--12--12--12--12--12--12--12--12--12--12--12--12--12--12---|
                                                                      |
Chorus: Guitar 2 (Distorted)                                          |
 C|-------------------------------------------------------------------|
 G|-------------------------------------------------------------------|
Eb|--14--14--14--14--14--14--14--14--14--14--14--14--14--14--14--14---|
Bb|---x---x---x---x---x---x---x---x---x---x---x---x---x---x---x---x---|
 F|--12--12--12--12--12--12--12--12--12--12--12--12--12--12--12--12---|
Bb|-------------------------------------------------------------------|

Chorus: Guitar 1 (Distorted)
 C|-------------------------------------------------------------------|
 G|--10--10--10--10--10--10--10--10-----------------------------------|
Eb|--10--10--10--10--10--10--10--10--12--12--12--12--12--12--12--12---|
Bb|--8---8---8---8---8---8---8---8---10--10--10--10--10--10--10--10---|
 F|--8---8---8---8---8---8---8---8---10--10--10--10--10--10--10--10---|
Bb|--8---8---8---8---8---8---8---8---10--10--10--10--10--10--10--10---|
                                                                      |
Chorus: Guitar 2 (Distorted)                                          |
 C|-------------------------------------------------------------------|
 G|-------------------------------------------------------------------|
Eb|--14--14--14--14--14--14--14--14--12--12--12--12--12--12--12--12---|
Bb|---x---x---x---x---x---x---x---x---x---x---x---x---x---x---x---x---|
 F|--12--12--12--12--12--12--12--12--10--10--10--10--10--10--10--10---|
Bb|-------------------------------------------------------------------|

Chorus: Guitar 1 (Distorted)
 C|-------------------------------------------------------------------|
 G|-------------------------------------------------------------------|
Eb|--14--14--14--14--14--14--14--14--14--14--14--14--14--14--14--14---|
Bb|--12--12--12--12--12--12--12--12--12--12--12--12--12--12--12--12---|
 F|--12--12--12--12--12--12--12--12--12--12--12--12--12--12--12--12---|
Bb|--12--12--12--12--12--12--12--12--12--12--12--12--12--12--12--12---|
                                                                      |
Chorus: Guitar 2 (Distorted)                                          |
 C|-------------------------------------------------------------------|
 G|-------------------------------------------------------------------|
Eb|--11--11--11--11--11--11--11--11--11--11--11--11--11--11--11--11---|
Bb|---x---x---x---x---x---x---x---x---x---x---x---x---x---x---x---x---|
 F|---9---9---9---9---9---9---9---9---9---9---9---9---9---9---9---9---|
Bb|-------------------------------------------------------------------|

Chorus: Guitar 1 (Distorted)
 C|-------------------------------------------------------------------|
 G|--10--10--10--10--10--10--10--10-----------------------------------|
Eb|--10--10--10--10--10--10--10--10--12--12--12--12--12--12--12--12---|
Bb|--8---8---8---8---8---8---8---8---10--10--10--10--10--10--10--10---|
 F|--8---8---8---8---8---8---8---8---10--10--10--10--10--10--10--10---|
Bb|--8---8---8---8---8---8---8---8---10--10--10--10--10--10--10--10---|
                                                                      |
Chorus: Guitar 2 (Distorted)                                          |
 C|-------------------------------------------------------------------|
 G|-------------------------------------------------------------------|
Eb|--14--14--14--14--14--14--14--14--12--12--12--12--12--12--12--12---|
Bb|---x---x---x---x---x---x---x---x---x---x---x---x---x---x---x---x---|
 F|--12--12--12--12--12--12--12--12--10--10--10--10--10--10--10--10---|
Bb|-------------------------------------------------------------------|

Outro: Guitars 1 & 2 (Distorted)
 C|-------------------------------------------------------------------|
 G|-------------------------------------------------------------------|
Eb|-------------------------------------------------------------------|
Bb|-------------------------------------------------------------------|
 F|--0-0-0-0--0-0-0--0--0--0-0----------------------------------------|
Bb|--0-0-0-0--0-0-0--0--0--0-0----------------------------------------|

Finished
Tap to rate this tab
 
# A B C D E F G H I J K L M N O P Q R S T U V W X Y Z