Song name
# A B C D E F G H I J K L M N O P Q R S T U V W X Y Z

Breaking Benjamin - Rain tab

INTRO 1X
D|----------------------------------------------|
A|----------------------------------------------|
F|7--7-7-7-7--7-7-7-7-7--7--7-7-7-7--7-7-7-7-7--|
C|4--4-4-4-4--4-4-4-4-4--4--4-4-4-4--7-7-7-7-7--|
G|0--0-0-0-0--x-x-x-x-x--0--0-0-0-0--5-5-5-5-5--|
C|0--0-0-0-0--5-5-5-5-5--0--0-0-0-0--5-5-5-5-5--|

D|-------------------------------------------------------------|
A|-------------------------------------------------------------|
F|7--7-7-7-7-(11)(11)(11)(11)(11)-(9)-(9)(9)(9)(9)--7-7-7-7-7--|
C|4--4-4-4-4--12--12--12--12--12---11--11-11-11-11--7-7-7-7-7--|
G|0--0-0-0-0--9---9---9---9---9----7---7--7--7--7---5-5-5-5-5--|
C|0--0-0-0-0--9---9---9---9---9----7---7--7--7--7---5-5-5-5-5--|

VERSE X2
D|----------------------------------------------|
A|----------------------------------------------|
F|7--7-7-7-7--7-7-7-7-7--7--7-7-7-7--7-7-7-7-7--|
C|4--4-4-4-4--4-4-4-4-4--4--4-4-4-4--7-7-7-7-7--|
G|0--0-0-0-0--x-x-x-x-x--0--0-0-0-0--5-5-5-5-5--|
C|0--0-0-0-0--5-5-5-5-5--0--0-0-0-0--5-5-5-5-5--|

D|-------------------------------------------------------------|
A|-------------------------------------------------------------|
F|7--7-7-7-7-(11)(11)(11)(11)(11)-(9)-(9)(9)(9)(9)--7-7-7-7-7--|
C|4--4-4-4-4--12--12--12--12--12---11--11-11-11-11--7-7-7-7-7--|
G|0--0-0-0-0--9---9---9---9---9----7---7--7--7--7---5-5-5-5-5--|
C|0--0-0-0-0--9---9---9---9---9----7---7--7--7--7---5-5-5-5-5--|

CHORUS 
D|-------------0--0--0--0--0------------------------------|
A|3--3-3-3-3---0--0--0--0--0---7---7--7-7-7-7-7---7-7-7-7-|
F|2--2-2-2-2--(4)(4)(4)(4)(4)--7---7--7-7-7-7-7---7-7-7-7-|
C|0--0-0-0-0---5--5--5--5--5---5---5--5-5-5-5-5---5-5-5-5-|
G|0--0-0-0-0---2--2--2--2--2---5---5--5-5-5-5-5---5-5-5-5-|
C|0--0-0-0-0---2--2--2--2--2---5---5--5-5-5-5-5---5-5-5-5-|

D|-------------0--0-0-0-0--0-------------------------------|
A|3--3-3-3-3---0--0-0-0-0--0---7---7--7-7-7-7-7---7-7-7-7--|
F|2--2-2-2-2--(4)(4)(4)(4)(4)--7---7--7-7-7-7-7---7-7-7-7--|
C|0--0-0-0-0---5--5--5--5--5---5---5--5-5-5-5-5---5-5-5-5--|
G|0--0-0-0-0---2--2--2--2--2---5---5--5-5-5-5-5---5-5-5-5--|
C|0--0-0-0-0---2--2--2--2--2---5---5--5-5-5-5-5---5-5-5-5--|

VERSE X2
D|----------------------------------------------|
A|----------------------------------------------|
F|7--7-7-7-7--7-7-7-7-7--7--7-7-7-7--7-7-7-7-7--|
C|4--4-4-4-4--4-4-4-4-4--4--4-4-4-4--7-7-7-7-7--|
G|0--0-0-0-0--x-x-x-x-x--0--0-0-0-0--5-5-5-5-5--|
C|0--0-0-0-0--5-5-5-5-5--0--0-0-0-0--5-5-5-5-5--|

D|-------------------------------------------------------------|
A|-------------------------------------------------------------|
F|7--7-7-7-7-(11)(11)(11)(11)(11)-(9)-(9)(9)(9)(9)--7-7-7-7-7--|
C|4--4-4-4-4--12--12--12--12--12---11--11-11-11-11--7-7-7-7-7--|
G|0--0-0-0-0--9---9---9---9---9----7---7--7--7--7---5-5-5-5-5--|
C|0--0-0-0-0--9---9---9---9---9----7---7--7--7--7---5-5-5-5-5--|

CHORUS 2X
D|-------------0--0--0--0--0------------------------------|
A|3--3-3-3-3---0--0--0--0--0---7---7--7-7-7-7-7---7-7-7-7-|
F|2--2-2-2-2--(4)(4)(4)(4)(4)--7---7--7-7-7-7-7---7-7-7-7-|
C|0--0-0-0-0---5--5--5--5--5---5---5--5-5-5-5-5---5-5-5-5-|
G|0--0-0-0-0---2--2--2--2--2---5---5--5-5-5-5-5---5-5-5-5-|
C|0--0-0-0-0---2--2--2--2--2---5---5--5-5-5-5-5---5-5-5-5-|

D|-------------0--0-0-0-0--0-------------------------------|
A|3--3-3-3-3---0--0-0-0-0--0---7---7--7-7-7-7-7---7-7-7-7--|
F|2--2-2-2-2--(4)(4)(4)(4)(4)--7---7--7-7-7-7-7---7-7-7-7--|
C|0--0-0-0-0---5--5--5--5--5---5---5--5-5-5-5-5---5-5-5-5--|
G|0--0-0-0-0---2--2--2--2--2---5---5--5-5-5-5-5---5-5-5-5--|
C|0--0-0-0-0---2--2--2--2--2---5---5--5-5-5-5-5---5-5-5-5--|

BRIDGE
D|--------------------------------------------------------------------|
A|--------------------------------------------------------------------|
F|(11)-(11)(11)(11)(11)-7-7---7--7-7-(6)---(6)(6)(6)(6)-7-7---7--7-7--|
C|-12---12--12--12--12--7-7---7--7-7--7-----7--7--7--7--7-7---7--7-7--|
G|-9----9---9---9---9---5-5---5--5-5--4-----4--4--4--4--5-5---5--5-5--|
C|-9----9---9---9---9---5-5---5--5-5--4-----4--4--4--4--5-5---5--5-5--|

D|--------------------------------------------------------------------|
A|--------------------------------------------------------------------|
F|(11)-(11)(11)(11)(11)-7-7---7--7-7---9---9--9-9-9--7-7--7-7-7-7-----|
C|-12---12--12--12--12--7-7---7--7-7---7---7--7-7-7--5-5--5-5-5-5-----|
G|-9----9---9---9---9---5-5---5--5-5---7---7--7-7-7--5-5--5-5-5-5-----|
C|-9----9---9---9---9---5-5---5--5-5---7---7--7-7-7--5-5--5-5-5-5-----|

D|--------------------------------------------------------------------|
A|--------------------------------------------------------------------|
F|(11)-(11)(11)(11)(11)-7-7---7--7-7-(6)---(6)(6)(6)(6)-7-7---7--7-7--|
C|-12---12--12--12--12--7-7---7--7-7--7-----7--7--7--7--7-7---7--7-7--|
G|-9----9---9---9---9---5-5---5--5-5--4-----4--4--4--4--5-5---5--5-5--|
C|-9----9---9---9---9---5-5---5--5-5--4-----4--4--4--4--5-5---5--5-5--|

D|--------------------------------------------------------------------|
A|--------------------------------------------------------------------|
F|(11)-(11)(11)(11)(11)-7-7---7--7-7---9---9--9-9-9-9-9-9-9-9-9-9-----|
C|-12---12--12--12--12--7-7---7--7-7---7---7--7-7-7-7-7-7-7-7-7-7-----|
G|-9----9---9---9---9---5-5---5--5-5---7---7--7-7-7-7-7-7-7-7-7-7-----|
C|-9----9---9---9---9---5-5---5--5-5---7---7--7-7-7-7-7-7-7-7-7-7-----|

OUTRO/CHORUS 
D|--------------------------------------------------------|
A|------------7--7---7-7-7-----------------7-7----7-7-7-7-|
F|7--7-7-7-7--7--7---7-7-7--7----7--7-7-7--7-7----7-7-7-7-|
C|7--7-7-7-7--5--5---5-5-5--7----7--7-7-7--5-5----5-5-5-5-|
G|5--5-5-5-5--5--5---5-5-5--5----5--5-5-5--5-5----5-5-5-5-|
C|0--0-0-0-0--5--5---5-5-5--0----0--0-0-0--5-5----5-5-5-5-|

Guitar 1
D|-------------------0--0----0--0--0-----------------------------|
A|3------3--3-3--3---0--0----0--0--0---7---7--7-7-7-7-7-7--x-----|
F|2------2--2-2--2--(4)(4)--(4)(4)(4)--7---7--7-7-7-7-7-7--x--9--|
C|0------0--0-0--0---5--5----5--5--5---5---5--5-5-5-5-5-5--x--7--|
G|0------0--0-0--0---2--2----2--2--2---5---5--5-5-5-5-5-5--x--7--|
C|0------0--0-0--0---2--2----2--2--2---5---5--5-5-5-5-5-5--x--7--|

D|--------------------------------------------------------|
A|------------7--7---7-7-7-----------------7-7----7-7-7-7-|
F|7--7-7-7-7--7--7---7-7-7--7----7--7-7-7--7-7----7-7-7-7-|
C|7--7-7-7-7--5--5---5-5-5--7----7--7-7-7--5-5----5-5-5-5-|
G|5--5-5-5-5--5--5---5-5-5--5----5--5-5-5--5-5----5-5-5-5-|
C|0--0-0-0-0--5--5---5-5-5--0----0--0-0-0--5-5----5-5-5-5-|

D|----------------------------------|------------------0--0---0---0--0---|
A|--7---7--7-7-7-7----7--7--7--7--7-|-3----3--3--3--3--0--0---0---0--0---|
F|--7---7--7-7-7-7----7--7--7--7--7-|-2----2--2--2--2-(4)(4)-(4)-(4)(4)--|
C|--5---5--5-5-5-7----5--5--5--5--5-|-0----0--0--0--0--5--5---5---5--5---|
G|--5---5--5-5-5-5----5--5--5--5--5-|-0----0--0--0--0--2--2---2---2--2---|
C|--5---5--5-5-5-5----5--5--5--5--5-|-0----0--0--0--0--2--2---2---2--2---|

D|---------------------------------|-------------------0--0--0--0--0----|
A|-7---7--7-7-7-7----7--7--7--7--7-|-3----3--3--3--3---0--0--0--0--0--7-|
F|-7---7--7-7-7-7----7--7--7--7--7-|-2----2--2--2--2--(4)(4)(4)(4)(4)-7-|
C|-5---5--5-5-5-5----5--5--5--5--5-|-0----0--0--0--0---5--5--5--5--5--5-|
G|-5---5--5-5-5-5----5--5--5--5--5-|-0----0--0--0--0---2--2--2--2--2--5-|
C|-5---5--5-5-5-5----5--5--5--5--5-|-0----0--0--0--0---2--2--2--2--2--5-|
Tap to rate this tab
 
# A B C D E F G H I J K L M N O P Q R S T U V W X Y Z