Song name
# A B C D E F G H I J K L M N O P Q R S T U V W X Y Z

Breaking Benjamin - Polyamorous tab

Tuning: C# (Db, Ab, Db, Gb, Bb, Eb)

Intro (with Tremolo)
|-------------------|
|-------------------|
|-11~--7~---11~--7~-|
|-9~---5~---9~---5~-|
|-9~---5~---9~---5~-|
|-9~---5~---9~---5~-|


(Tremolo off)
|--------------------------|
|--------------------------|
|--------------------------|
|-9-9--9-5-5--5-5-5--0-5-5-| x3 then...
|-9-9--9-5-5--5-5-5--0-5-5-|
|-9-9--9-0-0--0-5-5--0-5-5-|

|------------------------------|
|------------------------------|
|------------------------------|
|-9-9--9-5-5--5-5-5--0-5p4-0h4-|
|-9-9--9-5-5--5-5-5--0-5p4-0h4-|
|-9-9--9-0-0--0-5-5--0-5p4-0h4-|

(Main Intro Riff)
|--------------------------------------------|
|--------------------------------------------|
|--------------------------------------------|
|-9*-9*---10-10-9-9---9*-9*---12-12-10-10----| x4
|-9*-9*---------------9*-9*------------------|
|-9*-9*---------------9*-9*------------------|

Verse 1
|------------------------------------------------------------|
|------------------------------------------------------------|
|------------------------------------------------------------|
|-------5-5-4-4--------5-5-4-4--------4-4-5-5--------5-5-4-4-| x3 then...
|-2--2-------------------------------------------------------|
|----------------4--4-----------5--5-----------4--4----------|
  .  .  . . . .  .  .  . . . .  .  .  . . . .  .  .  . . . .

|----------------------------------------------------------|
|----------------------------------------------------------|
|----------------------------------------------------------|
|-------5-5-4-4--------5-5-4-4--------4-4-5-5-----------4\-|
|-2--2--------------------------------------------------4\-|
|----------------4--4-----------5--5-----------2--0--2--4\-|
  .  .  . . . .  .  .  . . . .  .  .  . . . .  .  .  .  

Chorus 1
|-------------------------------------------------|
|-------------------------------------------------|
|-------------------------------------------------|
|-0---7---5---0-5p4-0h4---0---7---5---0-5p4-0h4---|
|-0---7---5---0-5p4-0h4---0---7---5---0-5p4-0h4---|
|-0---7---5---0-5p4-0h4---0---7---5---0-5p4-0h4---|

|-------------x-x--x------------------------|
|-------------x-x--x------------------------|
|-------------x-x--x------------------------|
|-0---7---5---x-x--x--0---7---7---0-5p4-0h4-|
|-0---7---5---x-x--x--0---4---5---0-5p4-0h4-|
|-0---7---5---x-x--x--0---4---5---0-5p4-0h4-|

(Main Riff)
|--------------------------------------------|
|--------------------------------------------|
|--------------------------------------------|
|-9*-9*---10-10-9-9---9*-9*---12-12-10-10----| x2
|-9*-9*---------------9*-9*------------------|
|-9*-9*---------------9*-9*------------------|

Verse 2
|------------------------------------------------------------|
|------------------------------------------------------------|
|------------------------------------------------------------|
|-------5-5-4-4--------5-5-4-4--------4-4-5-5--------5-5-4-4-| x3 then...
|-2--2-------------------------------------------------------|
|----------------4--4-----------5--5-----------4--4----------|
  .  .  . . . .  .  .  . . . .  .  .  . . . .  .  .  . . . .

|----------------------------------------------------------|
|----------------------------------------------------------|
|----------------------------------------------------------|
|-------5-5-4-4--------5-5-4-4--------4-4-5-5-----------4\-|
|-2--2--------------------------------------------------4\-|
|----------------4--4-----------5--5-----------2--0--2--4\-|
  .  .  . . . .  .  .  . . . .  .  .  . . . .  .  .  .  

Chorus 2
|-------------------------------------------------|
|-------------------------------------------------|
|-------------------------------------------------|____________
|-0---7---5---0-5p4-0h4---0---7---5---0-5p4-0h4---|            |
|-0---7---5---0-5p4-0h4---0---7---5---0-5p4-0h4---|            |
|-0---7---5---0-5p4-0h4---0---7---5---0-5p4-0h4---|            |
                                                               |
|-------------x-x--x------------------------|                 | x2
|-------------x-x--x------------------------|                 |
|-------------x-x--x------------------------|                 |
|-0---7---5---x-x--x--0---7---7---0-5p4-0h4-|                 |
|-0---7---5---x-x--x--0---4---5---0-5p4-0h4-|_________________|
|-0---7---5---x-x--x--0---4---5---0-5p4-0h4-|

Breakdown
|---------------------------------------------------------------|
|---------------------------------------------------------------|
|-4-4-4-4---4---4---6--6---7--7--6-6-6-6---6---6---7--7---6--6--|___
|-x-x-x-x---x---x---x--x---x--x--x-x-x-x---x---x---x--x---x--x--|   |
|-2-2-2-2---2---2---4--4---5--5--4-4-4-4---4---4---5--5---4--4--|   |
|---------------------------------------------------------------|   |
                                                                    | x2
|----------------------------------------------------------|        |
|----------------------------------------------------------|        |
|-7-7-7-7---7---7---7-7--6-6--4-4-4-4---4---4---7--7--6--6-|        |
|-x-x-x-x---x---x---x-x--x-x--x-x-x-x---x---x---x--x--x--x-|  ______|
|-5-5-5-5---5---5---5-5--4-4--2-2-2-2---2---2---5--5--4--4-|
|----------------------------------------------------------|

Then...
|-------------------------------------------------------------------------|
|-------------------------------------------------------------------------|
|-------------------------------------------------------------------------|
|-------------------------------------------------------------------------|
|-------------------------------------------------------------------------|
|-9-9-9-9-9-9-9-9-11-11-11-11-12-12-12-12-4-4-4-4-4-4-4-4-5-5-5-5-4-4-4-4-|
  . . . . . . . .  .  .  .  .  .  .  .  . . . . . . . . . . . . . . . . .

|-----------------------------------------------------------------|
|-----------------------------------------------------------------|
|-----------------------------------------------------------------|
|-----------------------------------------------------------------|
|-----------------------------------------------------------------|
|-5-5-5-5-5-5-5-5-5-5-5-5-4-4-4-4-2-2-2-2-2-2-2-2-4-4-4-4-5-5-5-5-|
| . . . . . . . . . . . . . . . . . . . . . . . . . . . . . . . .

  Guitar 1
|-------------------------------------------------------------------------|
|-------------------------------------------------------------------------|
|-------------------------------------------------------------------------|
|-------------------------------------------------------------------------|
|-------------------------------------------------------------------------|
|-9-9-9-9-9-9-9-9-11-11-11-11-12-12-12-12-4-4-4-4-4-4-4-4-5-5-5-5-4-4-4-4-|
| . . . . . . . .  .  .  .  .  .  .  .  . . . . . . . . . . . . . . . . .
|
| Guitar 2 (synced with the palm muting) (with Wah)
|-------------------------------------------------------------------------|
|-------------------------------------------------------------------------|
|-4-4-4-4-4-4-4-4--6--6--6--6--7--7--7--7-6-6-6-6-6-6-6-6-7-7-7-7-9-9-9-9-|
|-x-x-x-x-x-x-x-x--x--x--x--x--x--x--x--x-x-x-x-x-x-x-x-x-x-x-x-x-x-x-x-x-|
|-2-2-2-2-2-2-2-2--4--4--4--4--5--5--5--5-4-4-4-4-4-4-4-4-5-5-5-5-7-7-7-7-|
|-------------------------------------------------------------------------|

|-----------------------------------------------------------------|
|-----------------------------------------------------------------|
|-----------------------------------------------------------------|
|-----------------------------------------------------------------|
|-----------------------------------------------------------------|
|-5-5-5-5-5-5-5-5-5-5-5-5-4-4-4-4-2-2-2-2-2-2-2-2-4-4-4-4-5-5-5-5-|
| . . . . . . . . . . . . . . . . . . . . . . . . . . . . . . . .
|
|-----------------------------------------------------------------|
|-----------------------------------------------------------------|
|-7-7-7-7-7-7-7-7-7-7-7-7-6-6-6-6-4-4-4-4-4-4-4-4-7-7-7-7-6-6-6-6-|
|-x-x-x-x-x-x-x-x-x-x-x-x-x-x-x-x-x-x-x-x-x-x-x-x-x-x-x-x-x-x-x-x-|
|-5-5-5-5-5-5-5-5-5-5-5-5-4-4-4-4-2-2-2-2-2-2-2-2-5-5-5-5-4-4-4-4-|
|-----------------------------------------------------------------|

|------------------------------------------------------------|
|------------------------------------------------------------|
|------------------------------------------------------------|
|-0*-0*--5p4-0h4--0*-0*--5p4-0h4--0*-0*--5p4-0h4--0*--PAUSE--|
|-0*-0*--5p4-0h4--0*-0*--5p4-0h4--0*-0*--5p4-0h4--0*---------|
|-0*-0*--5p4-0h4--0*-0*--5p4-0h4--0*-0*--5p4-0h4--0*---------|

Chorus 3
|-------------------------------------------------|
|-------------------------------------------------|
|-------------------------------------------------|____________
|-0---7---5---0-5p4-0h4---0---7---5---0-5p4-0h4---|            |
|-0---7---5---0-5p4-0h4---0---7---5---0-5p4-0h4---|            |
|-0---7---5---0-5p4-0h4---0---7---5---0-5p4-0h4---|            |
                                                               |
|-------------x-x--x------------------------|                 | x2
|-------------x-x--x------------------------|                 |
|-------------x-x--x------------------------|                 |
|-0---7---5---x-x--x--0---7---7---0-5p4-0h4-|                 |
|-0---7---5---x-x--x--0---4---5---0-5p4-0h4-|_________________|
|-0---7---5---x-x--x--0---4---5---0-5p4-0h4-|

Then...
|-------------x-x--x----------------------|
|-------------x-x--x----------------------|
|-------------x-x--x----------------------|
|-7---7---7---x-x--x--7---7---7---0h5-0h5-|
|-0---4---5---x-x--x--0---4---5---0h5-0h5-|
|-0---4---5---x-x--x--0---4---5---0h5-0h5-|
|
|-----------------------------------------|
|---7-5-7-8-7-----------7-5-7-8-7-5-7-----|
|-7-------------------7-------------------|
|-----------------------------------------|
|-----------------------------------------|
|-----------------------------------------|


|-------------x-x--x------------------------|
|-------------x-x--x------------------------|
|-------------x-x--x------------------------|
|-7---7---7---x-x--x--7---7---7---0-5p4-0h4-|
|-0---4---5---x-x--x--0---4---5---0-5p4-0h4-|
|-0---4---5---x-x--x--0---4---5---0-5p4-0h4-|
|
|-----------------------------------------|
|---7-5-7-8-7-----------7-5-7-8-7-5-7-----|
|-7-------------------7-------------------|
|-----------------------------------------|
|-----------------------------------------|
|-----------------------------------------|

Ending
|-------------------------------------------|
|-------------------------------------------|
|-------------------------------------------|
|-9*-9*---10-10-9-9---9*-9*---12-12-10-10---| 
|-9*-9*---------------9*-9*-----------------|
|-9*-9*---------------9*-9*-----------------|

|------------------------|
|------------------------|
|------------------------|
|-9*-9*---10-10-9-9---9\-|
|-9*-9*---------------9\-|
|-9*-9*---------------9\-|
Tap to rate this tab
# A B C D E F G H I J K L M N O P Q R S T U V W X Y Z