Song name
# A B C D E F G H I J K L M N O P Q R S T U V W X Y Z

Breaking Benjamin - Crawl tab

Breaking Benjamin
Crawl
Tabbed by:bmj`
Tuning:Bb F Bb Eb G C

Guitar 1 (Ben)

Guitar 2 (Aaron)

Guitar 3 (Studio Extra)                

I am still trying to figure out what Guitar 2 is doing in the verse so i will 
updated that when i get it down. 


Intro Guitar 1 & 2
C|-----------------------------------------------------------------------------|
G|-----------------------------------------------------------------------------|
Eb|----------------------------------------------------------------------------|
Bb|----------------------------------------------------------------------------|
F|-7772223333332232--77722233333322x2--7772223333332232--3333--3333---32-------|
Bb|777222333---22----777222333---22x2--777222333---22----3333--3333---32-------|

Intro Guitar 1
C|-----------------------------------------------------------------------------|
G|-----------------------------------------------------------------------------|
Eb|----------------------------------------------------------------------------|
Bb|----------------------------------------------------------------------------|
F|-7772223333332232-----------------------7772223332222320---------------------|
Bb|777222333---22-------------------------7772223332222------------------------|

Intro Guitar 2
C|-5-5-5-13-13-13-121212-8-8-8-1010-1212-15-15-15-13-13-13-121212-8-8-1010-1212|
G|-x-x-x--x--x--x--x-x-x-x-x-x--x-x--x-x--x--x--x--x--x--x--x-x-x-x-x--x-x--x-x|
Eb|2-2-2-10-10-10--9-9-9-5-5-5--7-7--9-9-12-12-12-10-10-10--9-9-9-5-5--7-7--9-9|
Bb|----------------------------------------------------------------------------|
F|-----------------------------------------------------------------------------|
Bb|----------------------------------------------------------------------------|

Intro Guitar 1
C|-----------------------------------------------------------------------------|
G|-----------------------------------------------------------------------------|
Eb|----------------------------------------------------------------------------|
Bb|----------------------------------------------------------------------------|
F|-7772223333332232-----------------------3333-----3333------32----------------|
Bb|777222333---22-------------------------3333-----3333------32----------------|

Intro Guitar 2
C|-5-5-5-13-13-13-121212-8-8-8-1010-1212--8-8-8-8--8-8-8-8---8-7---------------|
G|-x-x-x--x--x--x--x-x-x-x-x-x--x-x--x-x--x-x-x-x--x-x-x-x---x-x---------------|
Eb|2-2-2-10-10-10--9-9-9-5-5-5--7-7--9-9--5-5-5-5--5-5-5-5---5-4---------------|
Bb|----------------------------------------------------------------------------|
F|-----------------------------------------------------------------------------|
Bb|----------------------------------------------------------------------------|




Verse Guitar 1
C|-----------------------------------------------------------------------------|
G|---10--10----10-10----10--10--10--10----6--6----6-6-----8--8--8--8-----------|
Eb|-9---9---9-9--9-----9---9---9---9-----5--5--5-5-5-----7--7--7--7------------|
Bb|7---7-----7--------9---9---9---9-----3--3----3-------5--5--5--5-------------|
F|-----------------------------------------------------------------------------|
Bb|----------------------------------------------------------------------------|

Verse Guitar 2
C|-----------------------------------------------------------------------------|
G|-----------------------------------------------------------------------------|
Eb|----------------------------------------------------------------------------|
Bb|7---------------------------------------------------------------------------|
F|-7---------------------------------------------------------------------------|
Bb|7---------------------------------------------------------------------------|

Verse Guitar 3
C|-----------------------------------------------------------------------------|
G|-----------------------------------------------------------------------------|
Eb|----------------------------------------------------------------------------|
Bb|--7------10-9---10------7------5--------9----9h10p9-------------------------|
F|-----------------------------------------------------------------------------|
Bb|----------------------------------------------------------------------------|

Verse Guitar 1
C|-----------------------------------------------------------------------------|
G|---10--10----10-10----10--10--10--10----6--6----6-6-----8--8--8--8-----------|
Eb|-9---9---9-9--9-----9---9---9---9-----5--5--5-5-5-----7--7--7--7------------|
Bb|7---7-----7--------9---9---9---9-----3--3----3-------5--5--5--5-------------|
F|-----------------------------------------------------------------------------|
Bb|----------------------------------------------------------------------------|

Verse Guitar 2
C|-----------------------------------------------------------------------------|
G|-----------------------------------------------------------------------------|
Eb|----------------------------------------------------------------------------|
Bb|----------------------------------------------------------------------------|
F|-----------------------------------------------------------------------------|
Bb|----------------------------------------------------------------------------|

Verse Guitar 3
C|-----------------------------------------------------------------------------|
G|-----------------------------------------------------------------------------|
Eb|----------------------------------------------------------------------------|
Bb|--7------10-9---10------7------5--------9----9h10p9-------------------------|
F|-----------------------------------------------------------------------------|
Bb|----------------------------------------------------------------------------|




Pre-Chours Guitar 1 PM Play Pre-Chours Twice
C|-----------------------------------------------------------------------------|
G|-----------------------------------------------------------------------------|
Eb|----------------------------------------------------------------------------| 
Bb|----------------------------------------------------------------------------|
F|-------------------------------------------------------3333------------------|
Bb|--77777777777710101010--------------------555555555555----------------------|

Pre-Chours Guitar 2 
C|-----------------------------------------------------------------------------|
G|----------10-----------------------------------------8-----------------------|
Eb|-----9--------------------------------------7-------------------------------|
Bb|---7--------------------------------------5---5-5---------------------------|
F|-----------------------------------------------------------------------------|
Bb|----------------------------------------------------------------------------|
 
Pre-Chours Guitar 1 PM
C|-----------------------------------------------------------------------------|
G|-----------------------------------------------------------------------------|
Eb|----------------------------------------------------------------------------|
Bb|----------------------------------------------------------------------------|
F|--------------------------------------------------------32-32----------------|
Bb|--3333333333335555----------------------------33333333-32-32----------------|

Pre-Chours Guitar 2 
C|-----------------------------------------------------------------------------|
G|----------6--------------------------------------------6---------------------|
Eb|-----5-------------------------------------------5--------------------------|
Bb|---3-------------------------------------------3----------------------------|
F|-----------------------------------------------------------------------------|
Bb|----------------------------------------------------------------------------|




Chours Guitar 1
C|-----------------------------------------------------------------------------|
G|-----------------------------------------------------------------------------|
Eb|----------------------------------------------------------------------------|
Bb|-7777-------------555------------------------3--33--3--35-------------------|
F|--7777-------------555------------------------3--33--3--35-------------------|
Bb|-7777-------------555------------------------3--33--3--35-------------------|

Chours Guitar 2
C|-----------15--------------15-------------------15--------------15-----------|
G|-----131213--131213--131213--131213-------131213--13121312131213--131213-----|
Eb|--14--------------14-------------------14-----------------------------------|
Bb|----------------------------------------------------------------------------|
F|-----------------------------------------------------------------------------|
Bb|----------------------------------------------------------------------------|

Chours Guitar 1
C|-----------------------------------------------------------------------------|
G|-----------------------------------------------------------------------------|
Eb|----------------------------------------------------------------------------|
Bb|-7777-------------555------------------------3--33--3--3335-----------------|
F|--7777-------------555------------------------3--33--3--3335-----------------|
Bb|-7777-------------555------------------------3--33--3--3335-----------------|

Chours Guitar 2
C|-----------15--------------15-------------------15--------------15-----------|
G|-----131213--131213--131213--131213-------131213--13121312131213--131213-----|
Eb|--14--------------14-------------------14-----------------------------------|
Bb|----------------------------------------------------------------------------|
F|-----------------------------------------------------------------------------|
Bb|----------------------------------------------------------------------------|

Chours Guitar 1
C|-----------------------------------------------------------------------------|
G|-----------------------------------------------------------------------------|
Eb|----------------------------------------------------------------------------|
Bb|-7-7-7---10--10-10-10-------------------5-------5-----53----35--------------|
F|--7-7-7---10--10-10-10-------------------5-------5-----53----35--------------|
Bb|-7-7-7---10--10-10-10-------------------5-------5-----53----35--------------|

Chours Guitar 2
C|-------12----15----12-------------------------12----10----10-12--------------|
G|-10-13----13----13----13----------------10-13----13----13--------------------|
Eb|----------------------------------------------------------------------------|
Bb|----------------------------------------------------------------------------|
F|-----------------------------------------------------------------------------|
Bb|----------------------------------------------------------------------------|

Chours Guitar 1
C|-----------------------------------------------------------------------------|
G|-----------------------------------------------------------------------------|
Eb|----------------------------------------------------------------------------|
Bb|-7-7-7---10--10-10-10-------------------5-------5-----53----35--------------|
F|--7-7-7---10--10-10-10-------------------5-------5-----53----35--------------|
Bb|-7-7-7---10--10-10-10-------------------5-------5-----53----35--------------|

Chours Guitar 2
C|-------12----15----12-------------------------12----10----10-12--------------|
G|-10-13----13----13----13----------------10-13----13----13--------------------|
Eb|----------------------------------------------------------------------------|
Bb|----------------------------------------------------------------------------|
F|-----------------------------------------------------------------------------|
Bb|----------------------------------------------------------------------------|




Pre-Verse Guitar 1
C|-----------------------------------------------------------------------------|
G|-----------------------------------------------------------------------------|
Eb|----------------------------------------------------------------------------|
Bb|----------------------------------------------------------------------------|
F|-7772223333332232-----------------------777222333222233322-------------------|
Bb|777222333---22-------------------------7772223332222---22-------------------|


Pre-Verse Guitar 2
C|-5-5-5-13-13-13-121212-8-8-8-1010-1212-15-15-15-13-13-13-121212-8-8-1010-----|
G|-x-x-x--x--x--x--x-x-x-x-x-x--x-x--x-x--x--x--x--x--x--x--x-x-x-x-x--x-x-----|
Eb|2-2-2-10-10-10--9-9-9-5-5-5--7-7--9-9-12-12-12-10-10-10--9-9-9-5-5--7-7-----|
Bb|----------------------------------------------------------------------------|
F|-----------------------------------------------------------------------------|
Bb|----------------------------------------------------------------------------|
 
Pre-Verse Guitar 1
C|-----------------------------------------------------------------------------|
G|-----------------------------------------------------------------------------|
Eb|----------------------------------------------------------------------------|
Bb|----------------------------------------------------------------------------|
F|-7772223333332232-----------------------3333-----3333------32----------------|
Bb|777222333---22-------------------------3333-----3333------32----------------|

Pre-Verse Guitar 2
C|-5-5-5-13-13-13-121212-8-8-8-1010-1212--8-8-8-8--8-8-8-8---8-7---------------|
G|-x-x-x--x--x--x--x-x-x-x-x-x--x-x--x-x--x-x-x-x--x-x-x-x---x-x---------------|
Eb|2-2-2-10-10-10--9-9-9-5-5-5--7-7--9-9--5-5-5-5--5-5-5-5---5-4---------------|
Bb|----------------------------------------------------------------------------|
F|-----------------------------------------------------------------------------|
Bb|----------------------------------------------------------------------------|




Verse Guitar 1
C|-----------------------------------------------------------------------------|
G|---10--10----10-10----10--10--10--10----6--6----6-6-----8--8--8--8-----------|
Eb|-9---9---9-9--9-----9---9---9---9-----5--5--5-5-5-----7--7--7--7------------|
Bb|7---7-----7--------9---9---9---9-----3--3----3-------5--5--5--5-------------|
F|-----------------------------------------------------------------------------|
Bb|----------------------------------------------------------------------------|

Verse Guitar 2
C|-----------------------------------------------------------------------------|
G|-----------------------------------------------------------------------------|
Eb|----------------------------------------------------------------------------|
Bb|-7--------------------------------------------------------------------------|
F|--7--------------------------------------------------------------------------|
Bb|-7--------------------------------------------------------------------------|

Verse Guitar 3
C|-----------------------------------------------------------------------------|
G|-----------------------------------------------------------------------------|
Eb|----------------------------------------------------------------------------|
Bb|--7------10-9---10------7------5--------9----9h10p9-------------------------|
F|-----------------------------------------------------------------------------|
Bb|----------------------------------------------------------------------------|

Verse Guitar 1
C|-----------------------------------------------------------------------------|
G|---10--10----10-10----10--10--10--10----6--6----6-6-----8--8--8--8-----------|
Eb|-9---9---9-9--9-----9---9---9---9-----5--5--5-5-5-----7--7--7--7------------|
Bb|7---7-----7--------9---9---9---9-----3--3----3-------5--5--5--5-------------|
F|-----------------------------------------------------------------------------|
Bb|----------------------------------------------------------------------------|

Verse Guitar 3
C|-----------------------------------------------------------------------------|
G|-----------------------------------------------------------------------------|
Eb|----------------------------------------------------------------------------|
Bb|--7------10-9---10------7------5--------9----9h10p9-------------------------|
F|-----------------------------------------------------------------------------|
Bb|----------------------------------------------------------------------------|

Verse Guitar 2
C|-----------------------------------------------------------------------------|
G|-----------------------------------------------------------------------------|
Eb|----------------------------------------------------------------------------|
Bb|----------------------------------------------------------------------------|
F|-----------------------------------------------------------------------------|
Bb|----------------------------------------------------------------------------|




Pre-Chours Guitar 1 PM Play Pre-Chours Twice
C|-----------------------------------------------------------------------------|
G|-----------------------------------------------------------------------------|
Eb|----------------------------------------------------------------------------| 
Bb|----------------------------------------------------------------------------|
F|-------------------------------------------------------3333------------------|
Bb|--77777777777710101010--------------------555555555555----------------------|

Pre-Chours Guitar 2 
C|-----------------------------------------------------------------------------|
G|----------10-----------------------------------------8-----------------------|
Eb|-----9--------------------------------------7-------------------------------|
Bb|---7--------------------------------------5---5-5---------------------------|
F|-----------------------------------------------------------------------------|
Bb|----------------------------------------------------------------------------|

Pre-Chours Guitar 1 PM
C|-----------------------------------------------------------------------------|
G|-----------------------------------------------------------------------------|
Eb|----------------------------------------------------------------------------|
Bb|----------------------------------------------------------------------------|
F|--------------------------------------------------------32-32----------------|
Bb|--3333333333335555----------------------------33333333-32-32----------------|

Pre-Chours Guitar 2 
C|-----------------------------------------------------------------------------|
G|----------6--------------------------------------------6---------------------|
Eb|-----5-------------------------------------------5--------------------------|
Bb|---3-------------------------------------------3----------------------------|
F|-----------------------------------------------------------------------------|
Bb|----------------------------------------------------------------------------|





Chours Guitar 1
C|-----------------------------------------------------------------------------|
G|-----------------------------------------------------------------------------|
Eb|----------------------------------------------------------------------------|
Bb|-7777-------------555------------------------3--33--3--35-------------------|
F|--7777-------------555------------------------3--33--3--35-------------------|
Bb|-7777-------------555------------------------3--33--3--35-------------------|

Chours Guitar 2
C|-----------15--------------15-------------------15--------------15-----------|
G|-----131213--131213--131213--131213-------131213--13121312131213--131213-----|
Eb|--14--------------14-------------------14-----------------------------------|
Bb|----------------------------------------------------------------------------|
F|-----------------------------------------------------------------------------|
Bb|----------------------------------------------------------------------------|

Chours Guitar 1
C|-----------------------------------------------------------------------------|
G|-----------------------------------------------------------------------------|
Eb|----------------------------------------------------------------------------|
Bb|-7777-------------555------------------------3--33--3--3335-----------------|
F|--7777-------------555------------------------3--33--3--3335-----------------|
Bb|-7777-------------555------------------------3--33--3--3335-----------------|

Chours Guitar 2
C|-----------15--------------15-------------------15--------------15-----------|
G|-----131213--131213--131213--131213-------131213--13121312131213--131213-----|
Eb|--14--------------14-------------------14-----------------------------------|
Bb|----------------------------------------------------------------------------|
F|-----------------------------------------------------------------------------|
Bb|----------------------------------------------------------------------------|
Chours Guitar 1
C|-----------------------------------------------------------------------------|
G|-----------------------------------------------------------------------------|
Eb|----------------------------------------------------------------------------|
Bb|-7-7-7---10--10-10-10-------------------5-------5-----53----35--------------|
F|--7-7-7---10--10-10-10-------------------5-------5-----53----35--------------|
Bb|-7-7-7---10--10-10-10-------------------5-------5-----53----35--------------|
Chours Guitar 2
C|-------12----15----12-------------------------12----10----10-12--------------|
G|-10-13----13----13----13----------------10-13----13----13--------------------|
Eb|----------------------------------------------------------------------------|
Bb|----------------------------------------------------------------------------|
F|-----------------------------------------------------------------------------|
Bb|----------------------------------------------------------------------------|
Chours Guitar 1
C|-----------------------------------------------------------------------------|
G|-----------------------------------------------------------------------------|
Eb|----------------------------------------------------------------------------|
Bb|-7-7-7---10--10-10-10-------------------5-------5-----53----35--------------|
F|--7-7-7---10--10-10-10-------------------5-------5-----53----35--------------|
Bb|-7-7-7---10--10-10-10-------------------5-------5-----53----35--------------|
Chours Guitar 2
C|-------12----15----12-------------------------12----10----10-12--------------|
G|-10-13----13----13----13----------------10-13----13----13--------------------|
Eb|----------------------------------------------------------------------------|
Bb|----------------------------------------------------------------------------|
F|-----------------------------------------------------------------------------|
Bb|----------------------------------------------------------------------------|




Bridge Guitar 1
C|-----------------------------------------------------0~----------------------|
G|-----------------------------------------------------5~----------------------|
Eb|----------------------------------------------------4~----------------------|
Bb|--7-7-7-7-----------------------------0-2----3-2----2~----------------------|
F|---7-7-7-7-----------------------------0-2----3-2----2~----------------------|
Bb|--7-7-7-7-10-9-0-7-9-0-7-6------------0-2----3-2----2~----------------------|

Bridge Guitar 2
C|-----------------------------------------------------0~----------------------|
G|-----------------------------------------------------5~----------------------|
Eb|--9-9-9-9-------------------------------------------4~----------------------|
Bb|--x-x-x-x-----------------------------0-2----3-2----2~----------------------|
F|---7-7-7-7-----------------------------0-2----3-2----2~----------------------|
Bb|----------10-9-0-7-9-0-7-6------------0-2----3-2----2~----------------------|

Bridge Guitar 1
C|-----------------------------------------------------0~----------------------|
G|-----------------------------------------------------5~----------------------|
Eb|----------------------------------------------------4~----------------------|
Bb|--2-3----5-3--------------------------0-2----3-2----2~----------------------|
F|---2-3----5-3--------------------------0-2----3-2----2~----------------------|
Bb|--2-3----5-3-7-9-7-6------------------0-2----3-2----2~----------------------|

Bridge Guitar 2
C|-----------------------------------------------------0~----------------------|
G|-----------------------------------------------------5~----------------------|
Eb|----------------------------------------------------4~----------------------|
Bb|--2-3----5-3--------------------------0-2----3-2----2~----------------------|
F|---2-3----5-3--------------------------0-2----3-2----2~----------------------|
Bb|--2-3----5-3-7-9-7-6------------------0-2----3-2----2~----------------------|

Bridge Guitar 1
C|-----------------------------------------------------0~----------------------|
G|-----------------------------------------------------5~----------------------|
Eb|----------------------------------------------------4~----------------------|
Bb|--2-3----5-3--------------------------0-2----3-2----2~----------------------|
F|---2-3----5-3--------------------------0-2----3-2----2~----------------------|
Bb|--2-3----5-3-7-9-7-6------------------0-2----3-2----2~----------------------|

Bridge Guitar 2
C|-----------------------------------------------------------------------------|
G|-----------------------------------------------------------------------------|
Eb|---------------------------------------16-16-16-16-16-16-16-16-14-14-14-14--|
Bb|--2-3----5-3----------------------------x--x--x--x--x--x--x--x--x--x--x--x--|
F|---2-3----5-3---------------------------14-14-14-14-14-14-14-14-12-12-12-12--|
Bb|--2-3----5-3-7-9-7-6--------------------------------------------------------|

Bridge Guitar 1
C|-----------------------------------------------------0~----------------------|
G|-----------------------------------------------------5~----------------------|
Eb|----------------------------------------------------4~----------------------|
Bb|--2-3----5-3--------------------------0-2----3-2----2~----------------------|
F|---2-3----5-3--------------------------0-2----3-2----2~----------------------|
Bb|--2-3----5-3-7-9-7-6------------------0-2----3-2----2~----------------------|

Bridge Guitar 2
C|-----------------------------------------------------------------------------|
G|-----------------------------------------------------------------------------|
Eb|-13-13-13-13------17-17-17-17-17-17-16-16-19-19-17-17-16-16-17-17-----------|
Bb|--x--x--x--x-------x--x--x--x--x--x--x--x--x--x--x--x--x--x--x--x-----------|
F|--11-11-11-11------15-15-15-15-15-15-14-14-17-17-15-15-14-14-15-15-----------|
Bb|----------------------------------------------------------------------------|

Bridge Guitar 1
C|-----------------------------------------------------0~----------------------|
G|-----------------------------------------------------5~----------------------|
Eb|----------------------------------------------------4~----------------------|
Bb|--2-3----5-3--------------------------0-2----3-2----2~----------------------|
F|---2-3----5-3--------------------------0-2----3-2----2~----------------------|
Bb|--2-3----5-3-7-9-7-6------------------0-2----3-2----2~----------------------|

Bridge Guitar 2
C|-----------------------------------------------------------------------------|
G|-----------------------------------------------------------------------------|
Eb|--16-16-16-16-16-16-16-16-14-14-14-14-13-13-13-13---------------------------|
Bb|---x--x--x--x--x--x--x--x--x--x--x--x--x--x--x--x---------------------------|
F|---14-14-14-14-14-14-14-14-12-12-12-12-11-11-11-11---------------------------|
Bb|----------------------------------------------------------------------------|

Bridge Guitar 1
C|-----------------------------------------------------------------------------|
G|-----------------------------------------------------------------------------|
Eb|----------------------------------------------------------------------------|
Bb|--2-3---------5-3---------x-5-----------------------------------------------|
F|---2-3---------5-3---------x-5-----------------------------------------------|
Bb|--2-3---------5-3---------x-5-----------------------------------------------|

Bridge Guitar 2
C|-----------------------------------------------------------------------------|
G|-----------------------------------------------------------------------------|
Eb|--16-16-16-16-16-16-16-16-12-12-12-12-12-12-12-12---------------------------|
Bb|---x--x--x--x--x--x--x--x--x--x--x--x--x--x--x--x---------------------------|
F|---14-14-14-14-14-14-14-14-10-10-10-10-10-10-10-10---------------------------|
Bb|----------------------------------------------------------------------------|

Bridge Guitar 1
C|-----------------------------------------------------------------------------|
G|-----------------------------------------------------------------------------|
Eb|----------------------------------------------------------------------------|
Bb|--7-------------------------x-5---------------------------------------------|
F|---7-------------------------x-5---------------------------------------------|
Bb|--7-------------------------x-5---------------------------------------------|

Bridge Guitar 2
C|-----------------------------------------------------------------------------|
G|-----------------------------------------------------------------------------|
Eb|--14--------------------------12--------------------------------------------|
Bb|---x---------------------------x--------------------------------------------|
F|---12--------------------------10--------------------------------------------|
Bb|----------------------------------------------------------------------------|




Chours Guitar 1
C|-----------------------------------------------------------------------------|
G|-----------------------------------------------------------------------------|
Eb|----------------------------------------------------------------------------|
Bb|-7777-------------555------------------------3--33--3--35-------------------|
F|--7777-------------555------------------------3--33--3--35-------------------|
Bb|-7777-------------555------------------------3--33--3--35-------------------|

Chours Guitar 2                       not positive that this is what he is playing
C|-----------------------------------------------------------------------------|
G|--1010101010108812128810101212--------10101010101010101010101010101010-------|
Eb|----------------------------------------------------------------------------|
Bb|----------------------------------------------------------------------------|
F|-----------------------------------------------------------------------------|
Bb|----------------------------------------------------------------------------|

Chours Guitar 1
C|-----------------------------------------------------------------------------|
G|-----------------------------------------------------------------------------|
Eb|----------------------------------------------------------------------------|
Bb|-7777-------------555------------------------3--33--3--3335-----------------|
F|--7777-------------555------------------------3--33--3--3335-----------------|
Bb|-7777-------------555------------------------3--33--3--3335-----------------|

Chours Guitar 2
C|-----------------------------------------------------------------------------|
G|--1010101010108812128810101212--------10101010101010101010101010101010-------|
Eb|----------------------------------------------------------------------------|
Bb|----------------------------------------------------------------------------|
F|-----------------------------------------------------------------------------|
Bb|----------------------------------------------------------------------------|

Chours Guitar 1
C|-----------------------------------------------------------------------------|
G|-----------------------------------------------------------------------------|
Eb|----------------------------------------------------------------------------|
Bb|-7-7-7-7-10-10-10-10------------------5-5-5-5-5-3---3-5---------------------|
F|--7-7-7-7-10-10-10-10------------------5-5-5-5-5-3---3-5---------------------|
Bb|-7-7-7-7-10-10-10-10------------------5-5-5-5-5-3---3-5---------------------|

Chours Guitar 2
C|-------12----15----12-------------------------12----10----10-12--------------|
G|-10-13----13----13----13----------------10-13----13----13--------------------|
Eb|----------------------------------------------------------------------------|
Bb|----------------------------------------------------------------------------|
F|-----------------------------------------------------------------------------|
Bb|----------------------------------------------------------------------------|

Chours Guitar 1
C|-----------------------------------------------------------------------------|
G|-----------------------------------------------------------------------------|
Eb|----------------------------------------------------------------------------|
Bb|-7-7-7-7-10-10-10-10------------------5-5-5-5-5-3---3-5---------------------|
F|--7-7-7-7-10-10-10-10------------------5-5-5-5-5-3---3-5---------------------|
Bb|-7-7-7-7-10-10-10-10------------------5-5-5-5-5-3---3-5---------------------|

Chours Guitar 2
C|-------12----15----12-------------------------12----10----10-12--------------|
G|-10-13----13----13----13----------------10-13----13----13--------------------|
Eb|----------------------------------------------------------------------------|
Bb|----------------------------------------------------------------------------|
F|-----------------------------------------------------------------------------|
Bb|----------------------------------------------------------------------------|



Outro Guitar 1 & 2
C|-----------------------------------------------------------------------------|
G|-----------------------------------------------------------------------------|
Eb|-----------------------------------------------------5-4-2------------------|
Bb|--7----2--3---2---x-x--x-------------7----2--3---2---5-4-2------------------|
F|---7----2--3---2---x-x--x-------------7----2--3---2---3-2-0------------------|
Bb|--7----2--3---2---x-x--x-------------7----2--3---2--------------------------|

Outro Guitar 1 & 2
C|-----------------------------------------------------------------------------|
G|-----------------------------------------------------------------------------|
Eb|-----------------------------------------------------5-4-2------------------|
Bb|--7----2--3---2---x-x--x-------------7----2--3---2---5-4-2------------------|
F|---7----2--3---2---x-x--x-------------7----2--3---2---3-2-0------------------|
Bb|--7----2--3---2---x-x--x-------------7----2--3---2--------------------------|


Outro Guitar 1 & 2
C|-----------------------------------------------------------------------------|
G|-----------------------------------------------------------------------------|
Eb|----2222-------------------------------222----------------------------------|
Bb|----2222-------------------------------222----------------------------------|
F|-----0000-------------------------------000----------------------------------|
Bb|----------------------------------------------------------------------------|


| /  slide up
| \  slide down
| h  hammer-on
| p  pull-off
| ~  vibrato
| +  harmonic
| x  Mute note
===============================================================================
Tap to rate this tab
 
# A B C D E F G H I J K L M N O P Q R S T U V W X Y Z