Song name
# A B C D E F G H I J K L M N O P Q R S T U V W X Y Z

Breaking Benjamin - Fade Away tab

Fade Away
Breaking Benjamin
Tuning: low to high (Bb F Bb Eb G C)


b-bend     p-pull off      r-return         /-slide up        \-slide down     h-hammer on      

Intro: Guitar 2 (Clean)(Aaron)
 C|---------------------------------------------------------------------------|
 G|---------------------------------------------------------------------------|
Eb|------------------------0--------------------------------------------------|
Bb|--------------7---------------7----8---------8----0---8/10-----8----7------|
 F|---------9---------9-------------------------------------------------------|
Bb|--0-0----------------------0-----------0--------------------0--------------|

Intro: Guitar 2 (Clean)
 C|---------------------------------------------------------------------------|
 G|---------------------------------------------------------------------------|
Eb|-------------------0--------------------------------10---11----------------|
Bb|---------7----------------8/10---8--------8----0---------------------------|
 F|--------------9------------------------------------------------------------|
Bb|--0--------------------0-------------0-------------------------------------|

Intro: Guitar 1 (Distorted)(Ben)
 C|---------------------------------------------------------------------------|
 G|---------------------------------------------------------------------------|
Eb|---------------------------------------------------------------------------|
Bb|---------------------------------------------------------------------------|
 F|------------12------------13p12------------------12-----------13p12--------|
Bb|--0--10h12-0---10p0-10h12-----10p0-12p0--10h12-0---10p0-12h10-----10p0-12p0|
                                                                              |
Intro: Guitar 2 (Clean)                                                       |
 C|------------------------------------------------------8--------------------|
 G|------------10-------8----10----11----8----11----8---------11----10--------|
Eb|--7----10--------7---------------------------------------------------------|
Bb|---------------------------------------------------------------------------|
 F|---------------------------------------------------------------------------|
Bb|---------------------------------------------------------------------------|

Intro: Guitar 1 (Distorted)
 C|---------------------------------------------------------------------------|
 G|---------------------------------------------------------------------------|
Eb|---------------------------------------------------------------------------|
Bb|---------------------------------------------------------------------1-----|
 F|------------12------------13p12------------------12------------------1-----|
Bb|--0--10h12-0---10p0-10h12-----10p0-12p0--10h12-0---10p0-12h10-13p12--1--0--|
                                                                              |
Intro: Guitar 2 (Clean)                                                       |
 C|-----------------------8---------------------------------------------------|
 G|--7----10----7----8---------11------8----11----8----13---------------------|
Eb|----------------------------------------------------------15-----14b(15)r--|
Bb|---------------------------------------------------------------------------|
 F|---------------------------------------------------------------------------|
Bb|---------------------------------------------------------------------------|

Verse 1: Guitar 1: (Distorted) Palm Mute everything on E string
 C|---------------------------------------------------------------------------|
 G|---------------------------------------------------------------------------|
Eb|---------------------------------------------------------------------------|
Bb|-----------10-10---------10-10-----------------10-10-------10-10-----------|
 F|---------------------------------------------------------------------------|
Bb|--0--0-0-0-------0-0-0-0-------0---0---0-0-0-0-------0-0-0-------0---------|

Verse 1: Guitar 2 (Distorted)                                                 
 C|----------------------------------(17)----------------b--------------------|
 G|---------------------------------------------------------------------------|
Eb|--(14)---------------------------------------------------------------------|
Bb|---------------------------------------------------------------------------|
 F|---------------------------------------------------------------------------|
Bb|---------------------------------------------------------------------------|

Verse 1: Guitar 1: (Distorted)Palm Mute everything on E string
 C|---------------------------------------------------------------------------|
 G|---------------------------------------------------------------------------|
Eb|---------------------------------------------------------------------------|
Bb|-----------10-10---------10-10----------------10-10--------10-10-----------|
 F|---------------------------------------------------------------------------|
Bb|--8--8-8-8-------8-8-8-8-------8--10-10101010-------101010-------10-8-7----|
                                                                              |
Verse 1: Guitar 2 (Distorted)                                                 |
 C|---------------------------------------------------------------------------|
 G|--15-----------------------------------------------------------------------|
Eb|---x-----------------------------------------------------------------------|
Bb|--12-----------------------------------------------------------------------|
 F|---------------------------------------------------------------------------|
Bb|---------------------------------------------------------------------------|

Verse 1: Guitar 1: (Distorted)Palm mute everything on E string
 C|---------------------------------------------------------------------------|
 G|---------------------------------------------------------------------------|
Eb|---------------------------------------------------------------------------|
Bb|-----------10-10---------10-10-----------------10-10-------10-10-----------|
 F|---------------------------------------------------------------------------|
Bb|--0--0-0-0-------0-0-0-0-------0---0---0-0-0-0-------0-0-0-------0---------|
                                                                              |
Verse 1: Guitar 2 (Distorted)                                                 |
 C|---------------------------------------------------------------------------|
 G|-------------------------13------------------------------------------------|
Eb|---------------------------------------14----------------------------------|
Bb|--12-----------------------------------------------------------------------|
 F|---------------------------------------------------------------------------|
Bb|---------------------------------------------------------------------------|

Verse 1: Guitar 1: (Distorted)Palm Mute everything on E string
 C|---------------------------------------------------------------------------|
 G|---------------------------------------------------------------------------|
Eb|---------------------------------------------------------------------------|
Bb|-----------10-10---------10-10---------------10-10--------10-10-101010-8-7-|
 F|---------------------------------------------------------------------------|
Bb|--8--8-8-8-------8-8-8-8------8--10-10101010-------101010------------------|
                                                                              |
Verse 1: Guitar 2 (Distorted)                                                 |
 C|---------------------------------------------------------------------------|
 G|---------------------------------------------------------------------------|
Eb|-------------------------15------------14----------------------------------|
Bb|--12-----------------------------------------------------------------------|
 F|---------------------------------------------------------------------------|
Bb|---------------------------------------------------------------------------|

Pre Chorus: Guitar 1 (Distorted)
 C|---------------------------------------------------------------------------|
 G|----------------------------------------------x------x---------------------|
Eb|--10-------10-----10-----10-----9------9------x------x---------------------|
Bb|--8--------8------8------8------8------8------x------x---------------------|
 F|--8--------8------8------8------8------8------x------x---------------------|
Bb|--8--------8------8------8------8------8------x------x---------------------|

Chorus: Guitar 1 (Distorted) PLAY CHORUS 2 TIMES
 C|---------------------------------------------------------------------------|
 G|---------------------------------------------------------------------------|
Eb|---------------------------------------------------------------------------|
Bb|--0-------0--0----3-------3--3----8-------8--8----8-------8--8/10----------|
 F|--0-------0--0----3-------3--3----8-------8--8----8-------8--8/10----------|
Bb|--0-------0--0----3-------3--3----8-------8--8----8-------8--8/10----------|
                                                                              |
Chorus: Guitar 2 (Distorted)                                                  |
 C|----------10------8----------10--------------------------------------------|
 G|------10--------------------------10--------10-----------------------------|
Eb|--7------------7------------------------7--------7----10---9---------------|
Bb|---------------------------------------------------------------------------|
 F|---------------------------------------------------------------------------|
Bb|---------------------------------------------------------------------------|

Chorus: Guitar 1 (Distorted)
 C|---------------------------------------------------------------------------|
 G|---------------------------------------------------------------------------|
Eb|---------------------------------------------------------------------------|
Bb|--0-------0--0----3-------3--3----8-------8--8----8-------8--8\7-----------|
 F|--0-------0--0----3-------3--3----8-------8--8----8-------8--8\7-----------|
Bb|--0-------0--0----3-------3--3----8-------8--8----8-------8--8\7-----------|
                                                                              |
Chorus: Guitar 2 (Distorted)                                                  |
 C|----------10------8----------10--------------------------------------------|
 G|------10--------------------------10--------10-------------8---------------|
Eb|--7------------7------------------------7--------7----10-------------------|
Bb|---------------------------------------------------------------------------|
 F|---------------------------------------------------------------------------|
Bb|---------------------------------------------------------------------------|

Post Chorus: Guitar 1 (Distorted)
 C|---------------------------------------------------------------------------|
 G|---------------------------------------------------------------------------|
Eb|---------------------------------------------------------------------------|
Bb|---------------------------------------------------------------------------|
 F|------------12------------13p12------------------12-----------13p12--------|
Bb|--0--10h12-0---10p0-10h12-----10p0-12p0--10h12-0---10p0-12h10-----10p0-12p0|
                                                                              |
Post Chorus: Guitar 2 (Clean)                                                 |
 C|------------------------------------------------------8--------------------|
 G|------------10-------8----10----11----8----11----8---------11----10--------|
Eb|--7----10--------7---------------------------------------------------------|
Bb|---------------------------------------------------------------------------|
 F|---------------------------------------------------------------------------|
Bb|---------------------------------------------------------------------------|

Post Chorus: Guitar 1 (Distorted)
 C|---------------------------------------------------------------------------|
 G|---------------------------------------------------------------------------|
Eb|---------------------------------------------------------------------------|
Bb|---------------------------------------------------------------------1-----|
 F|------------12------------13p12------------------12------------------1-----|
Bb|--0--10h12-0---10p0-10h12-----10p0-12p0--10h12-0---10p0-12h10-13p12--1--0--|
                                                                              |
Post Chorus: Guitar 2 (Clean)                                                 |
 C|-----------------------8---------------------------------------------------|
 G|--7----10----7----8---------11------8----11----8----13---------------------|
Eb|----------------------------------------------------------15-----14b(15)r--|
Bb|---------------------------------------------------------------------------|
 F|---------------------------------------------------------------------------|
Bb|---------------------------------------------------------------------------|

Verse 2: Guitar 1: (Distorted)Palm Mute everything on E string
 C|---------------------------------------------------------------------------|
 G|---------------------------------------------------------------------------|
Eb|---------------------------------------------------------------------------|
Bb|-----------10-10---------10-10-----------------10-10-------10-10-----------|
 F|---------------------------------------------------------------------------|
Bb|--0--0-0-0-------0-0-0-0-------0---0---0-0-0-0-------0-0-0-------0---------|
                                                                              |
Verse 2: Guitar 2 (Distorted)                                                 |
 C|----------------------------------(17)----------------b--------------------|
 G|---------------------------------------------------------------------------|
Eb|--(14)---------------------------------------------------------------------|
Bb|---------------------------------------------------------------------------|
 F|---------------------------------------------------------------------------|
Bb|---------------------------------------------------------------------------|

Verse 2: Guitar 1: (Distorted)Palm Mute everything on E string
 C|---------------------------------------------------------------------------|
 G|---------------------------------------------------------------------------|
Eb|---------------------------------------------------------------------------|
Bb|-----------10-10---------10-10----------------10-10--------10-10-----------|
 F|---------------------------------------------------------------------------|
Bb|--8--8-8-8-------8-8-8-8-------8--10-10101010-------101010-------10-8-7----|
                                                                              |
Verse 2: Guitar 2 (Distorted)                                                 |
 C|---------------------------------------------------------------------------|
 G|--15-----------------------------------------------------------------------|
Eb|---x-----------------------------------------------------------------------|
Bb|--12-----------------------------------------------------------------------|
 F|---------------------------------------------------------------------------|
Bb|---------------------------------------------------------------------------|

Verse 2: Guitar 1: (Distorted) Palm Mute Everything on E string
 C|---------------------------------------------------------------------------|
 G|---------------------------------------------------------------------------|
Eb|---------------------------------------------------------------------------|
Bb|-----------10-10---------10-10-----------------10-10-------10-10-----------|
 F|---------------------------------------------------------------------------|
Bb|--0--0-0-0-------0-0-0-0-------0---0---0-0-0-0-------0-0-0-------0---------|
                                                                              |
Verse 2: Guitar 2 (Distorted)                                                 |
 C|---------------------------------------------------------------------------|
 G|-------------------------13------------------------------------------------|
Eb|---------------------------------------14----------------------------------|
Bb|--12-----------------------------------------------------------------------|
 F|---------------------------------------------------------------------------|
Bb|---------------------------------------------------------------------------|

Verse 2: Guitar 1: (Distorted)Palm Mute everything on E string
 C|---------------------------------------------------------------------------|
 G|---------------------------------------------------------------------------|
Eb|---------------------------------------------------------------------------|
Bb|-----------10-10---------10-10---------------10-10--------10-10-101010-8-7-|
 F|---------------------------------------------------------------------------|
Bb|--8--8-8-8-------8-8-8-8------8--10-10101010-------101010------------------|
                                                                              |
Verse 2: Guitar 2 (Distorted)                                                 |
 C|---------------------------------------------------------------------------|
 G|---------------------------------------------------------------------------|
Eb|-------------------------15------------14----------------------------------|
Bb|--12-----------------------------------------------------------------------|
 F|---------------------------------------------------------------------------|
Bb|---------------------------------------------------------------------------|

Pre Chorus: Guitar 1 (Distorted)
 C|---------------------------------------------------------------------------|
 G|----------------------------------------------x------x---------------------|
Eb|--10-------10-----10-----10-----9------9------x------x---------------------|
Bb|--8--------8------8------8------8------8------x------x---------------------|
 F|--8--------8------8------8------8------8------x------x---------------------|
Bb|--8--------8------8------8------8------8------x------x---------------------|

Chorus: Guitar 1 (Distorted) PLAY CHORUS 2 TIMES
 C|---------------------------------------------------------------------------|
 G|---------------------------------------------------------------------------|
Eb|---------------------------------------------------------------------------|
Bb|--0-------0--0----3-------3--3----8-------8--8----8-------8--8/10----------|
 F|--0-------0--0----3-------3--3----8-------8--8----8-------8--8/10----------|
Bb|--0-------0--0----3-------3--3----8-------8--8----8-------8--8/10----------|
                                                                              |
Chorus: Guitar 2 (Distorted)                                                  |
 C|----------10------8----------10--------------------------------------------|
 G|------10--------------------------10--------10-----------------------------|
Eb|--7------------7------------------------7--------7----10---9---------------|
Bb|---------------------------------------------------------------------------|
 F|---------------------------------------------------------------------------|
Bb|---------------------------------------------------------------------------|

Chorus: Guitar 1 (Distorted)
 C|---------------------------------------------------------------------------|
 G|---------------------------------------------------------------------------|
Eb|---------------------------------------------------------------------------|
Bb|--0-------0--0----3-------3--3----8-------8--8----8-------8--8\7-----------|
 F|--0-------0--0----3-------3--3----8-------8--8----8-------8--8\7-----------|
Bb|--0-------0--0----3-------3--3----8-------8--8----8-------8--8\7-----------|
                                                                              |
Chorus: Guitar 2 (Distorted)                                                  |
 C|----------10------8----------10--------------------------------------------|
 G|------10--------------------------10--------10-------------8---------------|
Eb|--7------------7------------------------7--------7----10-------------------|
Bb|---------------------------------------------------------------------------|
 F|---------------------------------------------------------------------------|
Bb|---------------------------------------------------------------------------|

Bridge: Guitar 1 (Distorted)
 C|---------------------------------------------------------------------------|
 G|---------------------------------------------------------------------------|
Eb|---------------------------------------------------------------------------|
Bb|---------------------------------------------------------------------------|
 F|---------------3--5-----6--3---5--6-----------------3--5---3--0------------|
Bb|--0---3--5--0--------0-----------------0---3--5--0----------------3---1----|
                                                                              |
Bridge: Guitar 2 (Distorted w/ Wah)                                           |
 C|---------------------------------------------------------------------------|
 G|--15-------------------10------8------11-------------------------10---16---|
Eb|---x--------------------x------x-------x--------------------------x----x---|
Bb|--12--------------------7------5-------8--------------------------7---13---|
 F|---------------------------------------------------------------------------|
Bb|---------------------------------------------------------------------------|

Bridge: Guitar 1 (Distorted)
 C|---------------------------------------------------------------------------|
 G|---------------------------------------------------------------------------|
Eb|---------------------------------------------------------------------------|
Bb|---------------------------------------------------------------------------|
 F|---------------3--5-----6--3---5--6-----------------3--5---3--0-------1----|
Bb|--0---3--5--0--------0-----------------0---3--5--0--------------------1----|
                                                                              |
Bridge: Guitar 2 (Distorted w/ Wah)                                           |
 C|---------------------------------------------------------------------------|
 G|--15-------------------10-----13------11-------------------------10---16---|
Eb|---x--------------------x------x-------x--------------------------x----x---|
Bb|--12--------------------7-----10-------8--------------------------7---13---|
 F|---------------------------------------------------------------------------|
Bb|---------------------------------------------------------------------------|

Bridge: Guitar 1 (Distorted)
 C|---------------------------------------------------------------------------|
 G|---------------------------------------------------------------------------|
Eb|---------------------------------------------------------------------------|
Bb|---------------------------------------------------------------------------|
 F|--0---3--5--0--3--5--0--6--3---5--6----0---3--5--0--3--5---3--0---3---1----|
Bb|--0---3--5--0--------0-----------------0---3--5--0----------------3---1----|
                                                                              |
Bridge: Guitar 2 (Distorted)                                                  |
 C|--5h6--5-3-5-6-5-3-5--6-5-3-5-6-5-8---6--5-3-5-6-5-3-5--6-5-3-5------------|
 G|-----------------------------------------------------------------7-/8-7-/8-|
Eb|---------------------------------------------------------------------------|
Bb|---------------------------------------------------------------------------|
 F|---------------------------------------------------------------------------|
Bb|---------------------------------------------------------------------------|

Bridge: Guitar 1 (Distorted)
 C|---------------------------------------------------------------------------|
 G|---------------------------------------------------------------------------|
Eb|---------------------------------------------------------------------------|
Bb|---------------------------------------------------------------3--3--------|
 F|--0---3--5--0--3--5--0--6--3---5--6----0---3--5--0--3--5---1---1--1---0----|
Bb|--0---3--5--0--------0-----------------0---3--5--0---------1----------0----|
                                                                              |
Bridge: Guitar 2 (Distorted)                                                  |
 C|-----------------------------------------------------------6---8------8\---|
 G|------------------6---------8---------7--------------------6---6------8\---|
Eb|--4--5--7---5--7------5--7------5--7------5--7--8--5--7--8-----------------|
Bb|---------------------------------------------------------------------------|
 F|---------------------------------------------------------------------------|
Bb|---------------------------------------------------------------------------|

Chorus: Guitar 1 (Distorted) PLAY CHORUS 2 TIMES
 C|---------------------------------------------------------------------------|
 G|---------------------------------------------------------------------------|
Eb|---------------------------------------------------------------------------|
Bb|--0-------0--0----3-------3--3----8-------8--8----8-------8--8/10----------|
 F|--0-------0--0----3-------3--3----8-------8--8----8-------8--8/10----------|
Bb|--0-------0--0----3-------3--3----8-------8--8----8-------8--8/10----------|
                                                                              |
Chorus: Guitar 2 (Distorted)                                                  |
 C|----------10------8----------10--------------------------------------------|
 G|------10--------------------------10--------10-----------------------------|
Eb|--7------------7------------------------7--------7----10---9---------------|
Bb|---------------------------------------------------------------------------|
 F|---------------------------------------------------------------------------|
Bb|---------------------------------------------------------------------------|

Chorus: Guitar 1 (Distorted)
 C|---------------------------------------------------------------------------|
 G|---------------------------------------------------------------------------|
Eb|---------------------------------------------------------------------------|
Bb|--0-------0--0----3-------3--3----8-------8--8----8-------8--8\7-----------|
 F|--0-------0--0----3-------3--3----8-------8--8----8-------8--8\7-----------|
Bb|--0-------0--0----3-------3--3----8-------8--8----8-------8--8\7-----------|
                                                                              |
Chorus: Guitar 2 (Distorted)                                                  |
 C|----------10------8----------10--------------------------------------------|
 G|------10--------------------------10--------10-------------8---------------|
Eb|--7------------7------------------------7--------7----10-------------------|
Bb|---------------------------------------------------------------------------|
 F|---------------------------------------------------------------------------|
Bb|---------------------------------------------------------------------------|

Outro: Guitar 1 (Distorted)
 C|---------------------------------------------------------------------------|
 G|---------------------------------------------------------------------------|
Eb|---------------------------------------------------------------------------|
Bb|---------------------------------------------------------------------------|
 F|------------12------------13p12------------------12-----------13p12--------|
Bb|--0--10h12-0---10p0-10h12-----10p0-12p0--10h12-0---10p0-12h10-----10p0-12p0|
                                                                              |
Outro: Guitar 2 (Clean)                                                       |
 C|------------------------------------------------------8--------------------|
 G|------------10-------8----10----11----8----11----8---------11----10--------|
Eb|--7----10--------7---------------------------------------------------------|
Bb|---------------------------------------------------------------------------|
 F|---------------------------------------------------------------------------|
Bb|---------------------------------------------------------------------------|

Outro: Guitar 1 (Distorted)
 C|---------------------------------------------------------------------------|
 G|---------------------------------------------------------------------------|
Eb|---------------------------------------------------------------------------|
Bb|---------------------------------------------------------------------1-----|
 F|------------12------------13p12------------------12------------------1-----|
Bb|--0--10h12-0---10p0-10h12-----10p0-12p0--10h12-0---10p0-12h10-13p12--1--0--|
                                                                              |
Outro: Guitar 2 (Clean)                                                       |
 C|-----------------------8---------------------------------------------------|
 G|--7----10----7----8---------11------8----11----8----13---------------------|
Eb|----------------------------------------------------------15-----14b(15)r--|
Bb|---------------------------------------------------------------------------|
 F|---------------------------------------------------------------------------|
Bb|---------------------------------------------------------------------------|

Finished
Tap to rate this tab
# A B C D E F G H I J K L M N O P Q R S T U V W X Y Z