Song name
# A B C D E F G H I J K L M N O P Q R S T U V W X Y Z

Breaking Benjamin - Forever tab

"Forever"
Breaking Benjamin
'Saturate' (2002)

Tuning: |eb
        |Bb
        |Gb
        |Db
        |Ab
        |Db
Intro:
eb|-5--5----5--5------------------------|
Bb|-4--4----4--4----4--5----4--5--------|
Gb|-----------------4--4----4--4----4/9-|
Db|-------------------------------------|
Ab|-0--0----0--0------------------------|
Db|-----------------2--2----2--2--------|

Verse:
|-------7------------7---------0-2--0-------0-2--0--|
|-----9----9-------9----9----0--------0-------------|
|---9--------9--------------------------------------| (x6)
|-7-------------7----------2-------------2----------|
|---------------------------------------------------|
|---------------------------------------------------|

|-5--5----5--5------------------------|
|-4--4----4--4----4--5----4--5--------|
|-----------------4--4----4--4--------| (x6)
|-------------------------------------|
|-0--0----0--0------------------------|
|-----------------2--2----2--2--------|

Chorus (acoustic):
 C#-       D#sus2     G#sus2 C#-
|-4--4-----7--7-------0--0---4--4-----------7-----------0--------0----|
|-5-----5--7-----9----0--0---5-----5------9---7-------0--------0---0--|
|-6--------9--------9--------6----------9-------7---------------------|
|-6--------9----------2--2---6--------7-------------2--------2--------|
|-4--------7----------0--0---4--------------------0--------0----------|
|---------------------------------------------------------------------|
 C#-
|-4--4-----------7-----------0--4--2-0---|
|-5-----5------9---7-------0----5------0-|
|-6----------9-------7----------6--------|
|-6--------7-------------2------6--------|
|-4--------------------0--------4--------|
|----------------------------------------|

Verse:

Chorus:
 D#                               G#
|-----------------------------------------------------------------|
|-----------------------------------------------------------------|
|-9-9-9-9-9-9-9-9-9-9-9-9-9-9-9-9---------------------------------|
|-9-9-9-9-9-9-9-9-9-9-9-9-9-9-9-9-7-7-7-7-7-7-7-7-7-7-7-7-7-7-7-7-|
|-7-7-7-7-7-7-7-7-7-7-7-7-7-7-7-7-7-7-7-7-7-7-7-7-7-7-7-7-7-7-7-7-|
|---------------------------------7-7-7-7-7-7-7-7-7-7-7-7-7-7-7-7-|

Solo: (x2)
  D#                                       G#
|----------------------------------------------------------------------------------------|
|----------------------------------------------------------------------------------------|
|-9-9-9-10-10-13-13-13-9-9-9-10-10-13-13-13-14-13-13-14-13-13-14-13-13-14-13-13-16-16-16-|
|----------------------------------------------------------------------------------------|
|-7-7-7--9-9--11-11-11-7-7-7--9-9--11-11-11-12-11-11-12-11-11-12-11-11-12-11-11-14-14-14-|
|----------------------------------------------------------------------------------------|

-----------------------------------------------------------------------------

Do you know
(that) I could never leave you?
And you know
I could never beat you?
And if I,
if I could never find you...
Nevermind! I would not forget you!

CAN I STAY ALIVE FOREVER?
CAN I STAY ALIVE FOREVER?
CAN I STAY ALIVE FOREVER?
Forever...

Can I feel
a chemical reaction?
'cause I feel
a hideous attraction!
Could we
share a poison apple?
Could it be
maniacle and awful?

CAN I STAY ALIVE FOREVER?
CAN I STAY ALIVE FOREVER?
CAN I STAY ALIVE FOREVER?
Forever...
Forever,
stay alive forever
Forever
Stay alive forever,
stay alive forever,
stay alive forever,
stay alive forever?

Stay alive forever!!!
Tap to rate this tab
# A B C D E F G H I J K L M N O P Q R S T U V W X Y Z