Song name
# A B C D E F G H I J K L M N O P Q R S T U V W X Y Z

Breaking Benjamin - Phase tab

-------------------------------------------------------------------------------
			     Phase - Breaking Benjamin
-------------------------------------------------------------------------------
Tabbed by: metalmonkey147
Email:

Tuning: Drop C

 Guitar comes in at 00:44
 Note - for those who dont already know, crescendo means get louder

|---------------------------------------------------------------------------|
|---------------------------------------------------------------------------|
|---------------------------------------------------------------------------|
|---------------------------------------------------------------------------|
|---------------------------------------------------------------------------|
|---6-6-6-9-9-9-4-4-4-6-6-6-1-1-4-1-6-6-6-9-9-9-4-4-4-6-6-6-1-1-4-1---------|
    . . . . . . . . . . . . . . . . . . . . . . . . . . . . . . . .
|---------------------------------------------------------------------------|
|---------------------------------------------------------------------------|
|---------------------------------------------------------------------------|
|---------------------------------------------------------------------------|
|---------------------------------------------------------------------------|
|---6-6-6-9-9-9-4-4-4-6-6-6-1-1-4-1-6-6-6-9-9-9-4-4-4-6-6-6-1-1-4-1---------|
    . . . . . . . . . . . . . . . . . . . . . . . . . . . . . . . .
|---------------------------------------------------------------------------|
|----------------------------9----------------------------------------------|
|---8-----8br-p6h8p6h8---------------8------8br-p6h8p6h8--------------------|
|---------------------------------------------------------------------------|
|---------------------------------------------------------------------------|
|---------------------------------------------------------------------------|
                                            *
|---------------------------------------------------------------11--11------|
|---------9----9--11--11----11h12p11h12--------9----9--11--11---------------|
|---8-8-8----8------------8--------------8-8-8----8-----------8-------------|
|---------------------------------------------------------------------------|
|---------------------------------------------------------------------------|
|---------------------------------------------------------------------------|

|---------------------------------------------------------------------------|
|---------9----9--11--11----11h12p11h12-----9----9----9----9----------------|
|---8-8-8----8------------8-----------------8----8----8----8----------------|
|---------------------------------------------------------------------------|
|---------------------------------------------------------------------------|
|---------------------------------------------------------------------------|

|---------------------------------------------------------------------------|
|---------------------------------------------------------------------------|
|---------------------------------------------------------------------------|
|---6-6-6-9-9-9-4-4-4-6-6-6-1-1-4-1-6-6-6-9-9-9-4-4-4-6-6-6-1-1-4-1---------|
|---6-6-6-9-9-9-4-4-4-6-6-6-1-1-4-1-6-6-6-9-9-9-4-4-4-6-6-6-1-1-4-1---------|
|---6-6-6-9-9-9-4-4-4-6-6-6-1-1-4-1-6-6-6-9-9-9-4-4-4-6-6-6-1-1-4-1---------|

|---------------------------------------------------------------------------|
|---------------------------------------------------------------------------|
|---------------------------------------------------------------------------|
|---6-6-6-9-9-9-4-4-4-6-6-6-1-1-4-1-6-6-6-9-9-9-4-4-4-6-6-6-1-1-4-1---------|
|---6-6-6-9-9-9-4-4-4-6-6-6-1-1-4-1-6-6-6-9-9-9-4-4-4-6-6-6-1-1-4-1---------|
|---6-6-6-9-9-9-4-4-4-6-6-6-1-1-4-1-6-6-6-9-9-9-4-4-4-6-6-6-1-1-4-1---------|

|---------------------------------------------------------------------------|
|---------------------------------------------------------------------------|
|---------------------------------------------------------------------------|
|---------------------------------------------------------------------------|
|---6-----9-----4-----6-----1-1-4-1-6-----9-----4-----6-----1-1-4-1---------|
|---6-----9-----4-----6-----1-1-4-1-6-----9-----4-----6-----1-1-4-1---------|
    .     .     .     .     . . . . .     .     .     .     . . . .
|---------------------------------------------------------------------------|
|---------------------------------------------------------------------------|
|---------------------------------------------------------------------------|
|---------------------------------------------------------------------------|
|---6-----9-----4-----6-----1-1-4-1-6-----9-----4-----6-----1-1-4-1---------|
|---6-----9-----4-----6-----1-1-4-1-6-----9-----4-----6-----1-1-4-1---------|
    .     .     .     .     . . . . .     .     .     .     . . . .
|---------------------------------------------------------------------------|
|---------------------------------------------------------------------------|
|---------------------------------------------------------------------------|
|---------------------------------------------------------------------------|
|---6-6-6-9-9-9-4-4-4-6-6-6-1-1-4-1-6-6-6-9-9-9-4-4-4-6-6-6-1-1-4-1---------|
|---6-6-6-9-9-9-4-4-4-6-6-6-1-1-4-1-6-6-6-9-9-9-4-4-4-6-6-6-1-1-4-1---------|
    . . . . . . . . . . . . . . . . . . . . . . . . . . . . . . . .
|---------------------------------------------------------------------------|
|---------------------------------------------------------------------------|
|---------------------------------------------------------------------------|
|-----------------------------------6-6-6-9-9-9-4-4-4-6-6-6-1-1-4-1---------|
|---6-6-6-9-9-9-4-4-4-6-6-6-1-1-4-1-6-6-6-9-9-9-4-4-4-6-6-6-1-1-4-1---------|
|---6-6-6-9-9-9-4-4-4-6-6-6-1-1-4-1-6-6-6-9-9-9-4-4-4-6-6-6-1-1-4-1---------|
    . . . . . . . . . . . . . . . . . . . . . . : : : : : :
|---------------------------------------------------------------------------|
|---------------------------------------------------------------------------|
|---------------------------------------------------------------------------|
|---2-----2--------6-----6---6h8/9\8----4---2-----2---9--9--9--9--8--8--8--8|
|---2-----2--------6-----6---6h8/9\8----4---2-----2---9--9--9--9--8--8--8--8|
|---2-----2--------6-----6---6h8/9\8----4---2-----2---9--9--9--9--8--8--8--8|

|---------------------------------------------------------------------------|
|---------------------------------------------------------------------------|
|---------------------------------------------------------------------------|
|---2-----2--------6-----6---6h8/9\8----4---2-----2---9--9--9--9--8--8--8--8|
|---2-----2--------6-----6---6h8/9\8----4---2-----2---9--9--9--9--8--8--8--8|
|---2-----2--------6-----6---6h8/9\8----4---2-----2---9--9--9--9--8--8--8--8|

|---------------------------------------------------------------------------------|
|---------------------------------------------------------------------------------|
|---------------------------------------------------------------------------------|
|--6--6--6--6--4--4--4--4--2-2-2-2-X-X-2-2-2-2--XXX-X-2-2-2-2-2-2-2-2-4-4-4-4-X-4-|
|--6--6--6--6--4--4--4--4--2-2-2-2-X-X-2-2-2-2--XXX-X-2-2-2-2-2-2-2-2-4-4-4-4-X-4-|
|--6--6--6--6--4--4--4--4--2-2-2-2-X-X-2-2-2-2--XXX-X-2-2-2-2-2-2-2-2-4-4-4-4-X-4-|

|---------------------------------------------------------------------------|
|---------------------------------------------------------------------------|
|---------------------------------------------------------------------------|
|---6-6-6-9-9-9-4-4-4-6-6-6-1-1-4-1-6-6-6-9-9-9-4-4-4-6-6-6-1-1-4-1---------|
|---6-6-6-9-9-9-4-4-4-6-6-6-1-1-4-1-6-6-6-9-9-9-4-4-4-6-6-6-1-1-4-1---------|
|---6-6-6-9-9-9-4-4-4-6-6-6-1-1-4-1-6-6-6-9-9-9-4-4-4-6-6-6-1-1-4-1---------|

|---------------------------------------------------------------------------|
|---------------------------------------------------------------------------|
|---------------------------------------------------------------------------|
|---6-6-6-9-9-9-4-4-4-6-6-6-1-1-4-1-6-6-6-9-9-9-4-4-4-6-6-6-1-1-4-1---------|
|---6-6-6-9-9-9-4-4-4-6-6-6-1-1-4-1-6-6-6-9-9-9-4-4-4-6-6-6-1-1-4-1---------|
|---6-6-6-9-9-9-4-4-4-6-6-6-1-1-4-1-6-6-6-9-9-9-4-4-4-6-6-6-1-1-4-1---------|

|---------------------------------------------------------------------------|
|---------------------------------------------------------------------------|
|---------------------------------------------------------------------------|
|---------------------------------------------------------------------------|
|---6-----9-----4-----6-----1-1-4-1-6-----9-----4-----6-----1-1-4-1---------|
|---6-----9-----4-----6-----1-1-4-1-6-----9-----4-----6-----1-1-4-1---------|
    .     .     .     .     . . . . .     .     .     .     . . . .
|---------------------------------------------------------------------------|
|---------------------------------------------------------------------------|
|---------------------------------------------------------------------------|
|---------------------------------------------------------------------------|
|---6-----9-----4-----6-----1-1-4-1-6-----9-----4-----6-----1-1-4-1---------|
|---6-----9-----4-----6-----1-1-4-1-6-----9-----4-----6-----1-1-4-1---------|
    .     .     .     .     . . . . .     .     .     .     . . . .
|---------------------------------------------------------------------------|
|---------------------------------------------------------------------------|
|---------------------------------------------------------------------------|
|---------------------------------------------------------------------------|
|---6-6-6-9-9-9-4-4-4-6-6-6-1-1-4-1-6-6-6-9-9-9-4-4-4-6-6-6-1-1-4-1---------|
|---6-6-6-9-9-9-4-4-4-6-6-6-1-1-4-1-6-6-6-9-9-9-4-4-4-6-6-6-1-1-4-1---------|
    . . . . . . . . . . . . . . . . . . . . . . . . . . . . . . . .
|---------------------------------------------------------------------------|
|---------------------------------------------------------------------------|
|---------------------------------------------------------------------------|
|-----------------------------------6-6-6-9-9-9-4-4-4-6-6-6-1-1-4-1---------|
|---6-6-6-9-9-9-4-4-4-6-6-6-1-1-4-1-6-6-6-9-9-9-4-4-4-6-6-6-1-1-4-1---------|
|---6-6-6-9-9-9-4-4-4-6-6-6-1-1-4-1-6-6-6-9-9-9-4-4-4-6-6-6-1-1-4-1---------|
    . . . . . . . . . . . . . . . . . . . . . . : : : : : :
|---------------------------------------------------------------------------|
|---------------------------------------------------------------------------|
|---------------------------------------------------------------------------|
|---2-----2--------6-----6---6h8/9\8----4---2-----2---9--9--9--9--8--8--8--8|
|---2-----2--------6-----6---6h8/9\8----4---2-----2---9--9--9--9--8--8--8--8|
|---2-----2--------6-----6---6h8/9\8----4---2-----2---9--9--9--9--8--8--8--8|

|---------------------------------------------------------------------------|
|---------------------------------------------------------------------------|
|---------------------------------------------------------------------------|
|---2-----2--------6-----6---6h8/9\8----4---2-----2---9--9--9--9--8--8--8--8|
|---2-----2--------6-----6---6h8/9\8----4---2-----2---9--9--9--9--8--8--8--8|
|---2-----2--------6-----6---6h8/9\8----4---2-----2---9--9--9--9--8--8--8--8|

|---------------------------------------------------------------------------------|
|---------------------------------------------------------------------------------|
|---------------------------------------------------------------------------------|
|--6--6--6--6--4--4--4--4--2-2-2-2-X-X-2-2-2-2--XXX-X-2-2-2-2-X-X-2-2-2-2--X--X--X|
|--6--6--6--6--4--4--4--4--2-2-2-2-X-X-2-2-2-2--XXX-X-2-2-2-2-X-X-2-2-2-2--X--X--X|
|--6--6--6--6--4--4--4--4--2-2-2-2-X-X-2-2-2-2--XXX-X-2-2-2-2-X-X-2-2-2-2--X--X--X|

|---------------------------------------------------------------------------|
|---------------------------------------------------------------------------|
|---------------------------------------------------------------------------|
|--2-2-2-2-X-X-2-2-2-2--X-X-X--X-2-2-2-2-2-2-2-2-4-4-4-4-X-4----------------|
|--2-2-2-2-X-X-2-2-2-2--X-X-X--X-2-2-2-2-2-2-2-2-4-4-4-4-X-4----------------|
|--2-2-2-2-X-X-2-2-2-2--X-X-X--X-2-2-2-2-2-2-2-2-4-4-4-4-X-4----------------|

|---------------------------------------------------------------------------|
|---------------------------------------------------------------------------|
|-------------------------16(x8)----20(x16)---------------------------------|
|--18(x16)------20(x8)--------------------------11---11---11---11-----------|
|-----------------------------------------------9----9----9----9------------|
|---------------------------------------------------------------------------|

|---------------------------------------------------------------------------|
|---------------------------------------------------------------------------|
|-------------------------21(x8)----20(x8)----------------------------------|
|--18(x16)------20(x8)-------------------------16\----2----4----------------|
|----------------------------------------------16\----2----4----------------|
|----------------------------------------------16\----2----4----------------|

|---------------------------------------------------------------------------|
|---------------------------------------------------------------------------|
|-------------------------16(x8)----20(x16)---------------------------------|
|--18(x16)------20(x8)--------------------------11---11---11---11-----------|
|-----------------------------------------------9----9----9----9------------|
|---------------------------------------------------------------------------|

|---------------------------------------------------------------------------|
|---------------------------------------------------------------------------|
|---------------------------------------------------------------------------|
|--18(x16)--------9----8----------------------------------------------------|
|-----------------9----8----------------------------------------------------|
|-----------------9----8----------------------------------------------------|

|---------------------------------------------------------------------------|
|---------------------------------------------------------------------------|
|---------------------------------------------------------------------------|
|---6-6-6-9-9-9-4-4-4-6-6-6-1-1-4-1-6-6-6-9-9-9-4-4-4-6-6-6-1-1-4-1---------|
|---6-6-6-9-9-9-4-4-4-6-6-6-1-1-4-1-6-6-6-9-9-9-4-4-4-6-6-6-1-1-4-1---------|
|---6-6-6-9-9-9-4-4-4-6-6-6-1-1-4-1-6-6-6-9-9-9-4-4-4-6-6-6-1-1-4-1---------|

|---------------------------------------------------------------------------|
|---------------------------------------------------------------------------|
|---------------------------------------------------------------------------|
|---6-6-6-9-9-9-4-4-4-6-6-6-1-1-4-1-6-6-6-9-9-9-4-4-4-6-6-6-1-1-4-1---------|
|---6-6-6-9-9-9-4-4-4-6-6-6-1-1-4-1-6-6-6-9-9-9-4-4-4-6-6-6-1-1-4-1---------|
|---6-6-6-9-9-9-4-4-4-6-6-6-1-1-4-1-6-6-6-9-9-9-4-4-4-6-6-6-1-1-4-1---------|

|---------------------------------------------------------------------------|
|---------------------------------------------------------------------------|
|---------------------------------------------------------------------------|
|---------------------------------------------------------------------------|
|---6-6-6-9-9-9-4-4-4-6-6-6-1-1-4-116-6-6-9-9-9-4-4-4-6-6-6-1-1-4-----------|
|---6-6-6-9-9-9-4-4-4-6-6-6-1-1-4-116-6-6-9-9-9-4-4-4-6-6-6-1-1-4-----------|
    . . . . . . . . . . . . . . . ... . . . . . . . . . . . . . .
|---------------------------------------------------------------------------|
|---------------------------------------------------------------------------|
|---------------------------------------------------------------------------|
|-----------------------------------9-9-9-11-11-11-8-8-8-9-9-9-----8--------|
|-116-6-6-9-9-9-4-4-4-6-6-6-1-1-4-1----------------------------9-9---9------|
|-116-6-6-9-9-9-4-4-4-6-6-6-1-1-4-1-----------------------------------------|
  ... . . . . . . . . . . . . . . . (------------crescendo------------)

|---------------------------------------------------------------------------|
|---------------------------------------------------------------------------|
|---------------------------------------------------------------------------|
|---6-6--6--4-6-6--6--6-9-9-4-4-6-6--6--4-6-6--6--6-9-9-4-4-----------------|
|---6-6--6--4-6-6--6--6-9-9-4-4-6-6--6--4-6-6--6--6-9-9-4-4-----------------|
|---6-6--6--4-6-6--6--6-9-9-4-4-6-6--6--4-6-6--6--6-9-9-4-4-----------------|

|---------------------------------------------------------------------------|
|---------------------------------------------------------------------------|
|---------------------------------------------------------------------------|
|---6-6--6--4-6-6--6--6-9-9-4-4-6-6--6--4-6-6--6--6-9-9-4-4-----------------|
|---6-6--6--4-6-6--6--6-9-9-4-4-6-6--6--4-6-6--6--6-9-9-4-4-----------------|
|---6-6--6--4-6-6--6--6-9-9-4-4-6-6--6--4-6-6--6--6-9-9-4-4-----------------|

|---------------------------------------------------------------------------|
|---------------------------------------------------------------------------|
|---------------------------------------------------------------------------|
|---6-6--6--4-6-6--6--6-9-9-4-4-6-6--6--4-6-6--6--6-9-9-4-4-----------------|
|---6-6--6--4-6-6--6--6-9-9-4-4-6-6--6--4-6-6--6--6-9-9-4-4-----------------|
|---6-6--6--4-6-6--6--6-9-9-4-4-6-6--6--4-6-6--6--6-9-9-4-4-----------------|

|---------------------------------------------------------------------------|
|---------------------------------------------------------------------------|
|---------------------------------------------------------------------------|
|---6-6--6--4-6-6--6--6-9-9-4-4-6-6--6--4-6-6--6----------------------------|
|---6-6--6--4-6-6--6--6-9-9-4-4-6-6--6--4-6-6--6----------------------------|
|---6-6--6--4-6-6--6--6-9-9-4-4-6-6--6--4-6-6--6----------------------------|


************************************

| :   slight palm mute
| .   palm mute
| /   slide up
| \   slide down
| h   hammer-on
| p   pull-off
| ~   vibrato
| *   harmonic
| x   Mute note
| b   Bend
| pb  Pre-bend
| br  Bend release
| pbr Pre-bend release
| brb Bend release bend

************************************
Tap to rate this tab
# A B C D E F G H I J K L M N O P Q R S T U V W X Y Z