Song name
# A B C D E F G H I J K L M N O P Q R S T U V W X Y Z

Breaking Benjamin - Next To Nothing tab

-------------------------------------------------------------------------------
			     Next to Nothing - Breaking Benjamin
-------------------------------------------------------------------------------
Tabbed by: metalmonkey147
Email:

Tuning: Drop C

Acoustic Part

|---------------------------------------------------------------------------|
|----6------6----------------------------6-----6----------------------------|
|----5------5----------------------------5-----5----------------------------|
|----3------3------7------7-----7--------0-----3-----7-----7-----7----------|
|----5------3------5------5-----5---0----------3-----5-----5-----5---0------|
|------------------5------5-----5---0----------------5-----5-----5---0------|

|---------------------------------------------------------------------------|
|----6------6----------------------------6-----6----------6-----------------|
|----5------5----------------------------5-----5-------------5--------------|
|----0------3------7------7-----7--------0-----3-----7-------------7--------|
|-----------3------5------5-----5---0----------3-----5----------------8-----|
|------------------5------5-----5---0----------------5----------------------|
                                                         (--let ring--)
|---------------------------------------------------------------------------|
|----6------6----------------------------6-----6----------------------------|
|----5------5----------------------------5-----5----------------------------|
|----0------3------7------7-----7--------0-----3-----7----------------------|
|-----------3------5------5-----5---0----------3-----5----------------------|
|------------------5------5-----5---0----------------5----------------------|

|---------------------------------------------------------------------------|
|----6------6----------------------------6-----6----------------------------|
|----5------5----------------------------5-----5----------------------------|
|----0------3------7------7-----7--------0-----3-----7-----7-----7----------|
|-----------3------5------5-----5---0----------3-----5-----5-----5---0------|
|------------------5------5-----5---0----------------5-----5-----5---0------|

|---------------------------------------------------------------------------|
|----6------6----------------------------6-----6----------------------------|
|----5------5----------------------------5-----5----------------------------|
|----0------3------7------7-----7--------0-----3-----7----------------------|
|-----------3------5------5-----5---0----------3-----5---5--5--5--5--5--5---|
|------------------5------5-----5---0----------------5---5--5--5--5--5--5---|

Electric Part

|---------------------------------------------------------------------------|
|---------------------------------------------------------------------------|
|---------------------------------------------------------------------------|
|--X-X-3--3--3--3--3--3--3--3--5--5--5--5--5--5--5--5-----------------------|
|--X-X-1--1--1--1--1--1--1--1--3--3--3--3--3--3--3--3-----------------------|
|---------------------------------------------------------------------------|
       .  .  .  .  .  .  .  .  .  .  .  .  .  .  .  .
|---------------------------------------------------------------------------|
|---------------------------------------------------------------------------|
|---------------------------------------------------------------------------|
|------3--3--3--3--3--3--3--3--5--5--5--5--5--5--5--5-----------------------|
|------1--1--1--1--1--1--1--1--3--3--3--3--3--3--3--3-----------------------|
|---------------------------------------------------------------------------|
       .  .  .  .  .  .  .  .  .  .  .  .
|---------------------------------------------------------------------------|
|---------------------------------------------------------------------------|
|-------------------------7---7-7-5---5--5--5-5-----------------------------| x4
|---3---3-3-8---8--8--8-8-7---7-7-5---5--5--5-5-----------------------------|
|---3---3-3-8---8--8--8-8-5---5-5-3---3--3--3-3-----------------------------|
|---3---3-3-8---8--8--8-8---------------------------------------------------|

|---------------------------------------------------------------------------|
|------------------------------------------------------------6\2------------|
|--------------------------------------------------5------------------------|
|--8--8--8--8--8--8--8--8--5--5--5--5--5--5--5--5--3------------------------|
|--8--8--8--8--8--8--8--8--5--5--5--5--5--5--5--5--5------------------------|
|--8--8--8--8--8--8--8--8--5--5--5--5--5--5--5--5---------------------------|

Acoustic

|---------------------------------------------------------------------------|
|----6------6----------------------------6-----6----------------------------|
|----5------5----------------------------5-----5----------------------------|
|----3------3------7------7-----7--------0-----3-----7-----7-----7----------|
|----5------3------5------5-----5---0----------3-----5-----5-----5---0------|
|------------------5------5-----5---0----------------5-----5-----5---0------|

|---------------------------------------------------------------------------|
|----6------6----------------------------6-----6----------------------------|
|----5------5----------------------------5-----5----------------------------|
|----0------3------7------7-----7--------0-----3-----7----------------------|
|-----------3------5------5-----5---0----------3-----5---5--5--5--5--5--5---|
|------------------5------5-----5---0----------------5---5--5--5--5--5--5---|

Electric

|---------------------------------------------------------------------------|
|---------------------------------------------------------------------------|
|---------------------------------------------------------------------------|
|--X-X-3--3--3--3--3--3--3--3--5--5--5--5--5--5--5--5-----------------------|
|--X-X-1--1--1--1--1--1--1--1--3--3--3--3--3--3--3--3-----------------------|
|---------------------------------------------------------------------------|
       .  .  .  .  .  .  .  .  .  .  .  .  .  .  .  .
|---------------------------------------------------------------------------|
|---------------------------------------------------------------------------|
|---------------------------------------------------------------------------|
|------3--3--3--3--3--3--3--3--5--5--5--5--5--5--5--5-----------------------|
|------1--1--1--1--1--1--1--1--3--3--3--3--3--3--3--3-----------------------|
|---------------------------------------------------------------------------|
       .  .  .  .  .  .  .  .  .  .  .  .
|---------------------------------------------------------------------------|
|---------------------------------------------------------------------------|
|-------------------------7---7-7-5---5--5--5-5-----------------------------| x4
|---3---3-3-8---8--8--8-8-7---7-7-5---5--5--5-5-----------------------------|
|---3---3-3-8---8--8--8-8-5---5-5-3---3--3--3-3-----------------------------|
|---3---3-3-8---8--8--8-8---------------------------------------------------|

|---------------------------------------------------------------------------|
|---------------------------------------------------------------------------|
|---------------------------------------------------------------------------|
|---3---3---3---3--5---3---3---3--5--2--3---3---3---3--5--3---3---3--5--2---|
|---1---1---1---1--3---1---1---1--3--0--1---1---1---1--3--1---1---1--3--0---|
|---------------------------------------------------------------------------|

|---------------------------------------------------------------------------|
|---------------------------------------------------------------------------|
|---------------------------------------------------------------------------|
|---3---3---3---3--5---3---3---3--5--2----3---3--3--X-X-5--3---3---3--5--2--|
|---1---1---1---1--3---1---1---1--3--0----1---1--1--X-X-3--1---1---1--3--0--|
|---------------------------------------------------------------------------|

|---------------------------------------------------------------------------|
|---6--6-6-6/8--8-8-8/11--10--10-10-10\---------5---------------------------|
|--------------------------------------5--5-5-5-----------------------------| x3
|---------------------------------------------------------------------------|
|---------------------------------------------------------------------------|
|---------------------------------------------------------------------------|

|---------------------------------------------------------------------------|
|---6--6-6-6/8--8-8-8/11--10--10-10-10\-------------------------------------|
|--------------------------------------5--5---------------------------------|
|-------------------------------------------X-X-X-X-------------------------|
|-------------------------------------------X-X-X-X-------------------------|
|-------------------------------------------X-X-X-X-------------------------|

|---------------------------------------------------------------------------|
|---------------------------------------------------------------------------|
|-------------------------7---7-7-5---5--5--5-5-----------------------------| x4
|---3---3-3-8---8--8--8-8-7---7-7-5---5--5--5-5-----------------------------|
|---3---3-3-8---8--8--8-8-5---5-5-3---3--3--3-3-----------------------------|
|---3---3-3-8---8--8--8-8---------------------------------------------------|

|---------------------------------------------------------------------------|
|---------------------------------------------------------------------------|
|---------------------------------------------------------------------------|
|--8-8-8-8-8-8-8-8-10-10-10-10-10-10-10-10-8-8-8-8-8-8-8-8-5-5-5-5-5-5-5-5--|
|--8-8-8-8-8-8-8-8-10-10-10-10-10-10-10-10-8-8-8-8-8-8-8-8-5-5-5-5-5-5-5-5--|
|--8-8-8-8-8-8-8-8-10-10-10-10-10-10-10-10-8-8-8-8-8-8-8-8-5-5-5-5-5-5-5-5--|

|---------------------------------------------------------------------------|
|--6h8-8/10--8---8---------------6h8-8/10---8---6--8--8/10------------------|
|-------------------5---7---------------------------------------------------|
|---------------------------------------------------------------------------|
|---------------------------------------------------------------------------|
|---------------------------------------------------------------------------|

|---------------------------------------------------------------------------|
|--6h8-8/10--8---8----------------------8/10---8---6---6/10-----------------|
|-------------------5---7---------------------------------------------------|
|-------------------------------X-X---X-------------------------------------|
|-------------------------------X-X---X-------------------------------------|
|---------------------------------------------------------------------------|


************************************

| .   palm mute
| /   slide up
| \   slide down
| h   hammer-on
| p   pull-off
| ~   vibrato
| *   harmonic
| x   Mute note
| b   Bend
| pb  Pre-bend
| br  Bend release
| pbr Pre-bend release
| brb Bend release bend

************************************
Tap to rate this tab
# A B C D E F G H I J K L M N O P Q R S T U V W X Y Z