Song name
# A B C D E F G H I J K L M N O P Q R S T U V W X Y Z

Breaking Benjamin - You tab

-------------------------------------------------------------------------------
			     You - Breaking Benjamin
-------------------------------------------------------------------------------
Tabbed by: metalmonkey147
Email:

Tuning: Drop C

Acoustic Part

|-----4-----4---------4-----4---------4-----4----------4------4-------------|
|---------------------------------------------------------------------------|
|---6-----6-----6---6-----6-----6---6-----6-----6---6------6------6---------| x4
|-4-----4-----4---4-----4-----4---0-----0-----0---0------0------0-----------|
|---------------------------------------------------------------------------|
|---------------------------------------------------------------------------|

|-----4-----4---------4-----4---------4-----4-------------------------------|
|---------------------------------------------------------------------------|
|---6-----6-----6---6-----6-----6---6-----6-----6---------------------------|
|-4-----4-----4---4-----4-----4---0-----0-----0---0-0-0-0-0-0-0-0-----------|
|---------------------------------------------------------------------------|
|---------------------------------------------------------------------------|

Electric Part

|------------------------------------------------------------------------------------|
|------------------------------------------------------------------------------------|
|------------------------------------------------------------------------------------|
|---5----5-----(5)-----0---0------7-7-----7-7---5---5----(5)---0---0----7-7--7-7h9---|
|---5----5-----(5)-----0---0------7-7-----7-7---5---5----(5)---0---0----7-7--7-7h9---|
|---5----5-----(5)-----0---0------7-7-----7-7---5---5----(5)---0---0----7-7--7-7h9---|

|------------------------------------------------------6--------------------|
|------------------------------------------------------X--------------------|
|------------------------------------------------------X--------------------|
|---5----5-----(5)-----0---0-----7-7----7-7-7----5-----5--------------------|
|---5----5-----(5)-----0---0-----7-7----7-7-7----5----(5)-------------------|
|---5----5-----(5)-----0---0-----7-7----7-7-7----5----(5)-------------------|

|-------------------------------------------------------------------------------------22-22-22-22|
|-19-19-19-19-------------19-19-19-19-------------------------19-19-19-19-21-21-21-21------------|
|-------------18-18-18-18-------------18-18-18-18-19-19-19-19------------------------------------|
|------------------------------------------------------------------------------------------------|
|------------------------------------------------------------------------------------------------|
|------------------------------------------------------------------------------------------------|

|------------------------------------------------------------------------------------------------|
|-19-19-19-19-------------19-19-19-19-------------------------19-19-19-19-21-21-21-21------------|
|-------------18-18-18-18-------------19-19-19-19-18-18-18-18-------------------------21-21-21-21|
|------------------------------------------------------------------------------------------------|
|------------------------------------------------------------------------------------------------|
|------------------------------------------------------------------------------------------------|

|-----4-----4---------4-----4---------4-----4----------4------4-------------|
|---------------------------------------------------------------------------|
|---6-----6-----6---6-----6-----6---6-----6-----6---6------6------6---------|
|-4-----4-----4---4-----4-----4---0-----0-----0---0------0------0-----------|
|---------------------------------------------------------------------------|
|---------------------------------------------------------------------------|
  . .   . .   .   . .   . .   .   . .   . .   .   . .    . .    .

|-----4-----4---------4-----4---------4-----4----------4---4-4h5-4-4--------|
|---------------------------------------------------------------------------|
|---6-----6-----6---6-----6-----6---6-----6-----6---6-----------------------|
|-4-----4-----4---4-----4-----4---0-----0-----0---0------0------------------|
|---------------------------------------------------------------------------|
|---------------------------------------------------------------------------|
  . .   . .   .   . .   . .   .   . .   . .   .   . .    .

|-----4-----4---------4-----4---------4-----4----------4------4-------------|
|---------------------------------------------------------------------------|
|---6-----6-----6---6-----6-----6---6-----6-----6---6------6------6---------|
|-4-----4-----4---4-----4-----4---0-----0-----0---0------0------0-----------|
|---------------------------------------------------------------------------|
|---------------------------------------------------------------------------|
  . .   . .   .   . .   . .   .   . .   . .   .   . .    . .    .

|-----4-----4---------4-----4---------4-----4-------------------------------|
|---------------------------------------------------------------------------|
|---6-----6-----6---6-----6-----6---6-----6-----6---------------------------|
|-4-----4-----4---4-----4-----4---0-----0-----0---0-0-0-0-0-0-0-0-----------|
|---------------------------------------------------------------------------|
|---------------------------------------------------------------------------|
  . .   . .   .   . .   . .   .   . .   . .   .   . .

|------------------------------------------------------------------------------------|
|------------------------------------------------------------------------------------|
|------------------------------------------------------------------------------------|
|---5----5-----(5)-----0---0------7-7-----7-7---5---5----(5)---0---0----7-7--7-7h9---|
|---5----5-----(5)-----0---0------7-7-----7-7---5---5----(5)---0---0----7-7--7-7h9---|
|---5----5-----(5)-----0---0------7-7-----7-7---5---5----(5)---0---0----7-7--7-7h9---|

|------------------------------------------------------6--------------------|
|------------------------------------------------------X--------------------|
|------------------------------------------------------X--------------------|
|---5----5-----(5)-----0---0-----7-7----7-7-7----5-----5--------------------|
|---5----5-----(5)-----0---0-----7-7----7-7-7----5----(5)-------------------|
|---5----5-----(5)-----0---0-----7-7----7-7-7----5----(5)-------------------|

This next part is either played at a low volume, or its the bass, im not sure

|---------------------------------------------------------------------------|
|---------------------------------------------------------------------------|
|---------------------------------------------------------------------------|
|---------------------------------------------------------------------------|
|-9-9-9-9-9-9-9-9-9-9-9-9-9-9-9-9-5-5-5-5-5-5-5-5-5h7-5p4-5p4-0-------------|
|---------------------------------------------------------------------------|

|------------------------------/21-21-21-21-----------------------------------------|
|-------------------------------------------21-21-21-21-17-17-17-17-17-17-17-17-17--|
|-----------------------------------------------------------------------------------|
|-----------------------------------------------------------------------------------|
|-9-9-9-9-9-9-9-9-9-9-9-9-9-9-9-----------------------------------------------------|
|-----------------------------------------------------------------------------------|

|-------------------------------------------------------------------------------------22-22-22-22-|
|-19-19-19-19-------------19-19-19-19-------------------------19-19-19-19-21-21-21-21-------------|
|-------------18-18-18-18-------------18-18-18-18-19-19-19-19-------------------------------------|
|-------------------------------------------------------------------------------------------------|
|-------------------------------------------------------------------------------------------------|
|-------------------------------------------------------------------------------------------------|

|-------------------------------------------------------------------------------------------------|
|-19-19-19-19-------------19-19-19-19-------------------------19-19-19-19-21-21-21-21-------------|
|-------------18-18-18-18-------------19-19-19-19-18-18-18-18-------------------------21-21-21-21-|
|-------------------------------------------------------------------------------------------------|
|-------------------------------------------------------------------------------------------------|
|-------------------------------------------------------------------------------------------------|

|-------------------------------------------------------------------------------------22-22-22-22-|
|-19-19-19-19-------------19-19-19-19-------------------------19-19-19-19-21-21-21-21-------------|
|-------------18-18-18-18-------------18-18-18-18-19-19-19-19-------------------------------------|
|-------------------------------------------------------------------------------------------------|
|-------------------------------------------------------------------------------------------------|
|-------------------------------------------------------------------------------------------------|

|---------------------------------------------------------------------------|
|-19-19-19-19-------------19-19-19-19------19----21-------------------------|
|-------------18-18-18-18-------------18---------------19-------------------|
|---------------------------------------------------------------------------|
|---------------------------------------------------------------------------|
|---------------------------------------------------------------------------|

************************************

| .   palm mute
| /   slide up
| \   slide down
| h   hammer-on
| p   pull-off
| ~   vibrato
| *   harmonic
| x   Mute note
| b   Bend
| pb  Pre-bend
| br  Bend release
| pbr Pre-bend release
| brb Bend release bend

************************************
Tap to rate this tab
 
# A B C D E F G H I J K L M N O P Q R S T U V W X Y Z