Song name
# A B C D E F G H I J K L M N O P Q R S T U V W X Y Z

Breaking Benjamin - Simple Design tab

-------------------------------------------------------------------------------
			     Simple Design - Breaking Benjamin
-------------------------------------------------------------------------------
Tabbed by: metalmonkey147
Email:

Tuning: Drop C

My first try at this tab was utterly wrong so I hope to redeem myself w/ this new
tab. Pretty sure its right this time.

|---------------------------------------------------------------------------|
|---------------------------------------------------------------------------|
|---------------------------------------------------------------------------|
|--X-X-X-X-9-10---9---7---5---0--3------------------------------------------|
|--X-X-X-X-9-10---9---7---5---0--3----------3h5----------3h5-3p0------------|
|--X-X-X-X-9-10---9---7---5---0--3--0-0---0------0--0--0--------------------|
           .
|---------------------------------------------------------|
|---------------------------------------------------------|
|---------------------------------------------------------|
|--10---9---7---5---0--3----------------------------------|
|--10---9---7---5---0--3----------3h5----------3h5-3p0----|
|--10---9---7---5---0--3--0-0-0-0------0--0--0------------|
                          . . . .
|---------------------------------------------------------|
|---------------------------------------------------------|
|--9---7---9---7---5--7-----------------------------------|
|--X---X---X---X---X--X-----------------------------------|
|--7---5---7---5---3--5----------3h5----------3h5-3p0-----|
|------------------------0-0---0------0--0--0-------------|

|-------------------|
|-------------------|
|-------7----10-----|
|--0----7----10-----|
|--0----5----8------|
|--0----------------|

|---------------------------------------------------------------------------|
|---------------------------------------------------------------------------|
|----------------------11-11-11-11---------------------11-11-11-11----------|
|--0---0-10--0---0---0-11-11-11-11-0---0-10--0---0---0-11-11-11-11----------|
|--0---0-9---0---0---0-9--9--9--9--0---0-9---0---0---0-9--9--9--9-----------|
|--0---0-10--0---0---0-------------0---0-10--0---0---0----------------------|

|---------------------------------------------------------------------------|
|---------------------------------------------------------------------------|
|----------------------11-11-11-11------------------------------------------|
|--0---0-10--0---0---0-11-11-11-11-0---0-10--0---0---0----------------------|
|--0---0-9---0---0---0-9--9--9--9--0---0-9---0---0---0-3-3-3-3-3/5----------|
|--0---0-10--0---0---0-------------0---0-10--0---0---0----------------------|

|---------------------------------------------------------------------------|
|---------------------------------------------------------------------------|
|---------------------------------------------------------------------------|
|---------------------------------5-5-5-5-5\4-------------------------------|
|-----------------3-3-3-3-3/5---------------------3-3-3-3-3/5---------------|
|---------------------------------------------------------------------------|

|---------------------------------------------------------------------------|
|---------------------------------------------------------------------------|
|---------------------------------------------------------------------------|
|---------------------------------5-5-5-5-5\4-------------------------------|
|--3-------3/5----3-3-3-3-3/5---------------------3-3-3-3-3/5------5b-------|
|---------------------------------------------------------------------------|

|---------------------------------------------------------------------------|
|---------------------------------------------------------------------------|
|----------------------11-11-11-11---------------------11-11-11-11----------|
|--0---0-10--0---0---0-11-11-11-11-0---0-10--0---0---0-11-11-11-11----------|
|--0---0-9---0---0---0-9--9--9--9--0---0-9---0---0---0-9--9--9--9-----------|
|--0---0-10--0---0---0-------------0---0-10--0---0---0----------------------|

|---------------------------------------------------------------------------|
|---------------------------------------------------------------------------|
|----------------------11-11-11-11---------------------10-10-10-10----------|
|--0---0-10--0---0---0-11-11-11-11-0---0-10--0---0---0-10-10-10-10----------|
|--0---0-9---0---0---0-9--9--9--9--0---0-9---0---0---0-8--8--8--8-----------|
|--0---0-10--0---0---0-------------0---0-10--0---0---0----------------------|

|----------------------------------------------------|
|----------------------------------------------------|
|----------------------------------------------------|
|--9----4-X-X-5----5--X-7---9----4-X-X-5----5--X-7---|
|--9----4-X-X-5----5--X-7---9----4-X-X-5----5--X-7---|
|--9----4-X-X-5----5--X-7---9----4-X-X-5----5--X-7---|

|--------------------|
|--------------------|
|--------------------| x3
|--0---7------4---5--|
|--0---7------4---5--|
|--0---7------4---5--|

|-----------------------------------------|
|-----------------------------------------|
|-----------------------------------------|
|--0---7---7--X-X-9--7--4--5---0-5p0-5h7--|
|--0---7---7--X-X-9--7--4--5---0-5p0-5h7--|
|--0---7---7--X-X-9--7--4--5---0-5p0-5h7--|

|------------------------------------------------------------|
|------------------------------------------------------------|
|----------------------11-11-11-11---------------------------|
|--0---0-10--0---0---0-11-11-11-11-0---0-10--0---0-X-X--10---|
|--0---0-9---0---0---0-9--9--9--9--0---0-9---0---0-X-X--10---|
|--0---0-10--0---0---0-------------0---0-10--0---0-X-X--10---|

|---------------------------------------------------------------------------|
|---------------------------------------------------------------------------|
|---------------------------------------------------------------------------|
|---------------------------------5-5-5-5-5\4-------------------------------|
|----------3/5----3-3-3-3-3/5---------------------3-3-3-3-3/5---------------|
|---------------------------------------------------------------------------|

|---------------------------------------------------------------------------|
|---------------------------------------------------------------------------|
|---------------------------------------------------------------------------|
|--8--8\7-------------------------5-5-5-5-5\4-------------------------------|
|--6--6\5---------3-3-3-3-3/5---------------------3-3-3-3-3/5------5b-------|
|---------------------------------------------------------------------------|

|---------------------------------------------------------------------------|
|---------------------------------------------------------------------------|
|----------------------11-11-11-11---------------------11-11-11-11----------|
|--0---0-10--0---0---0-11-11-11-11-0---0-10--0---0---0-11-11-11-11----------|
|--0---0-9---0---0---0-9--9--9--9--0---0-9---0---0---0-9--9--9--9-----------|
|--0---0-10--0---0---0-------------0---0-10--0---0---0----------------------|

|---------------------------------------------------------------------------|
|---------------------------------------------------------------------------|
|----------------------11-11-11-11---------------------10-10-10-10----------|
|--0---0-10--0---0---0-11-11-11-11-0---0-10--0---0---0-10-10-10-10----------|
|--0---0-9---0---0---0-9--9--9--9--0---0-9---0---0---0-8--8--8--8-----------|
|--0---0-10--0---0---0-------------0---0-10--0---0---0----------------------|

|----------------------------------------------------|
|----------------------------------------------------|
|----------------------------------------------------|
|--9----4-X-X-5----5--X-7---9----4-X-X-5----5--X-7---|
|--9----4-X-X-5----5--X-7---9----4-X-X-5----5--X-7---|
|--9----4-X-X-5----5--X-7---9----4-X-X-5----5--X-7---|

|--------------------|
|--------------------|
|--------------------| x3
|--0---7------4---5--|
|--0---7------4---5--|
|--0---7------4---5--|

|-----------------------------------------|
|-----------------------------------------|
|-----------------------------------------|
|--0---7---7--X-X-9--7--4--5---0-5p0-5h7--|
|--0---7---7--X-X-9--7--4--5---0-5p0-5h7--|
|--0---7---7--X-X-9--7--4--5---0-5p0-5h7--|

|---------------------------------------------------------------------------------------|
|---------------------------------------------------------------------------------------|
|---------------------------------------------------------------------------------------|
|---------------------------------------------------------------------------------------|
|--5------9---9---/10\9----12---12---/14\12---12\10-10-10\9-9-9\7-7-7/9-9-9h10p9h10p9---|
|---------------------------------------------------------------------------------------|

Acoustic Part

|------------0h2-----------------0h2-----|
|-------3---------3---------3---------3--|\
|-----2----2--------------0----0---------| \
|--0-------------------------------------|  \
|----------------------3-----------------|   \
|----------------------------------------|    \
                                               \
|------------2h3-----------------3-----3/5\3--| \
|-------3---------3---------3-------3---------|  |
|-----0----0--------------0----0--------------|  | x2
|---------------------------------------------| /
|--2------------------------------------------|/
|----------------------5----------------------|

Electric Part

|-------------------------------------------------|
|-------------------------------------------------|
|--7---7---7----------7---7---7-------------------|
|--7---7---7----------7---7---7-------------------|
|--5---5---5----------5---5---5-----5-------------|
|--------------------------------------3--0--3~~--|

|--------------------------------------------------------|
|--------------------------------------------------------|
|--7---7---7----------7---7---7--------------------------|
|--7---7---7----------7---7---7--------------------------|
|--5---5---5----------5---5---5-----5--------------3--5--|
|--------------------------------------3--0--3--5--------|

|---------------------------------------------------------------------------|
|--15--------15---------15--17p15-17-18b-18b==18r17-------------------------|
|---------------------------------------------------19-14-------------------|
|-------------------------------------------------------------X-X-X-X-------|
|-------------------------------------------------------------X-X-X-X-------|
|-------------------------------------------------------------X-X-X-X-------| 

|--------------------|
|--------------------|
|--------------------| x5
|--0---7------4---5--|
|--0---7------4---5--|
|--0---7------4---5--|

|-----------------------------------------|
|-----------------------------------------|
|-----------------------------------------|
|--0---7---7--X-X-9--7--4--5---0-5p0-5h7--|
|--0---7---7--X-X-9--7--4--5---0-5p0-5h7--|
|--0---7---7--X-X-9--7--4--5---0-5p0-5h7--|

|------------------------------------------------------------|
|------------------------------------------------------------|
|----------------------11-11-11-11---------------------------|
|--0---0-10--0---0---0-11-11-11-11-0---0-10--0--X--X--X--10--|
|--0---0-9---0---0---0-9--9--9--9--0---0-9---0--X--X--X--10--|
|--0---0-10--0---0---0-------------0---0-10--0--X--X--X--10--|

|-------------------------------------------------------------------|
|-------------------------------------------------------------------|
|-------------------------------------------------------------------|
|-----------------------------------------3-------------------------|
|-----------------------------3-5---5-------5---5---3-5---3-5-------|
|-0-0-3-0-5-0-0-6-0-0-5-0-3-5-----0---3-0-----0---0-----0-----3b~---|

|---------------------------------------------------------------------------|
|---------------------------------------------------------------------------|
|-------------------------------------7---//10------7---7---7---------------|
|---------------------------------0---7---//10------7---7---7---------------|
|---5-------------------------3-5-0---5---//8-------5---5---5---------------|
|-0---3-0-5-0-0-6-0-0-5-0-3-5-----0-----------------------------------------|


************************************

| .   palm mute
| /   slide up
| //  slow slide up
| \   slide down
| h   hammer-on
| p   pull-off
| ~   vibrato
| *   harmonic
| x   Mute note
| b   Bend
| =   hold bend
| pb  Pre-bend
| br  Bend release
| pbr Pre-bend release
| brb Bend release bend

************************************
Tap to rate this tab
# A B C D E F G H I J K L M N O P Q R S T U V W X Y Z