Song name
# A B C D E F G H I J K L M N O P Q R S T U V W X Y Z

Breaking Benjamin - Crawl tab

-------------------------------------------------------------------------------
			     Crawl - Breaking Benjamin
-------------------------------------------------------------------------------
Tabbed by: metalmonkey147
Email:

Tuning: Drop C

|-------------------------------------------------------------------|
|-------------------------------------------------------------------|
|-------------------------------------------------------------------|
|-5-5-5-0-0-0-1-1-1-------0-0-----5-5-5-0-0-0-1-1-1-------3-3---3---|
|-5-5-5-0-0-0-1-1-1-1-1-1-0-0-1-0-5-5-5-0-0-0-1-1-1-1-1-1-3-3---3---|
|-5-5-5-0-0-0-1-1-1-------0-0-----5-5-5-0-0-0-1-1-1-------3-3---3---|

|-------------------------------------------------------------------|
|-------------------------------------------------------------------|
|-------------------------------------------------------------------|
|-5-5-5-0-0-0-1-1-1-------0-0-----1-1-1-1----1-1-1-1------0---------|
|-5-5-5-0-0-0-1-1-1-1-1-1-0-0-1-0-1-1-1-1----1-1-1-1------0---------|
|-5-5-5-0-0-0-1-1-1-------0-0-----1-1-1-1----1-1-1-1------0---------|

|-------------------------------------------------------------------------------------------------|
|-20-20-20----------------------------------------18-18-18----------------------------------------|
|----------20-20-20-19-19-19----------17-17-19-19----------20-20-20-19-19-19----------17-17-19-19-|
|----------------------------20-20-20----------------------------------------20-20-20-------------|
|-------------------------------------------------------------------------------------------------|
|-------------------------------------------------------------------------------------------------|

|---------------------------------------------------------------------------------------|
|---------------------------------------------------------------------------------------|
|----------20-20-20-19-19-19----------17-17-19-19---------------------------------------|
|-17-17-17-------------------20-20-20-------------20-20-20-20-----20-20-20-20----20-19--|
|---------------------------------------------------------------------------------------|
|---------------------------------------------------------------------------------------|

Ok i know this clean part isnt how its actually played but until i have
it tabbed right, this works

|------------------------------------------------------------------------------------|
|------------------------------------------------------------------------------------|
|------10------10------10------10------10----------10-----10-----10-----10-----10----|
|----8-------8-------8-------8-------8-----------8------8------8------8------8-------|__
|-10------10------10------10------10-----------8------8------8------8------8---------|  \
|------------------------------------------------------------------------------------|   |
                                                                                         |
|-------------------------------------------------------------------------------|        | x2
|-------------------------------------------------------------------------------|        |
|-----10-----10-----10-----10-----10--------10-----10-----10-----10-----10------|       /
|---8------8------8------8------8---------8------8------8------8------8---------|______/
|-6------6------6------6------6---------8------8------8------8------8-----------|
|-------------------------------------------------------------------------------|

Electric Part

 (0:45)
|---------------------------------------------------------------------------|
|---------------------------------------------------------------------------|
|---------------------------------------------------------------------------|
|-5-5-----------------------------------------------------------------------|
|-5-5-----------------------------------------------------------------------|
|-5-5-5-5-5-5-5-5-5-5-5-5-8-8-7-7-3-3-3-3-3-3-3-3-3-3-3-3-8-8-7-7-----------|
      . . . . . . . . . . . . . . . . . . . . . . . . . . . . . .

|---------------------------------------------------------------------------|
|---------------------------------------------------------------------------|
|---------------------------------------------------------------------------|
|-------------------------------------------------1-0-----3-0---------------|
|-------------------------------------------------1-0-----3-0---------------|
|-1-1-1-1-1-1-1-1-1-1-1-1-1-3-3-3-1-1-1-1-1-1-1-1-1-0-----3-0---------------|
  . . . . . . . . . . . . . . . . . . . . . . . .

|---------------------------------------------------------------------------|
|---------------------------------------------------------------------------|
|---------------------------------------------------------------------------|
|-5-5-----------------------------------------------------------------------|
|-5-5-----------------------------------------------------------------------|
|-5-5-5-5-5-5-5-5-5-5-5-5-5-5-5-5-3-3-3-3-3-3-3-3-3-3-3-3-3-3-3-3-----------|
      . . . . . . . . . . . . . . . . . . . . . . . . . . . . . .

|---------------------------------------------------------------------------|
|---------------------------------------------------------------------------|
|---------------------------------------------------------------------------|
|-------------------------------------------------1-0-----3-0---------------|
|-------------------------------------------------1-0-----3-0---------------|
|-1-1-1-1-1-1-1-1-1-1-1-1-1-1-1-1-1-1-1-1-1-1-1-1-1-0-----3-0---------------|
  . . . . . . . . . . . . . . . . . . . . . . . .

|---------------------------------------------------------------------------|
|---------------------------------------------------------------------------|
|----------10----------------10----------------10---------------10----------|
|----8-7-8----8-7-8----8-7-8----8-7-8----8-7-8----8-7-8-7-8-7-8----8-7-8----| x2
|-10----------------10----------------10------------------------------------|
|---------------------------------------------------------------------------|

|---------------------------------------------------------------------------|
|---------15------16------15--------------15------13------13--15------------|
|-12--15------15------15------15------15------15------15--------------------|
|---------------------------------15----------------------------------------| x2
|---------------------------------------------------------------------------|
|---------------------------------------------------------------------------|

|-------------------------------------------------------------------------------------------------|
|-20-20-20----------------------------------------18-18-18----------------------------------------|
|----------20-20-20-19-19-19----------17-17-19-19----------20-20-20-19-19-19----------17-19----19-|
|----------------------------20-20-20----------------------------------------20-20-20-------------|
|-------------------------------------------------------------------------------------------------|
|-------------------------------------------------------------------------------------------------|

|---------------------------------------------------------------------------------------|
|---------------------------------------------------------------------------------------|
|----------20-20-20-19-19-19----------17-17-19-19---------------------------------------|
|-17-17-17-------------------20-20-20-------------20-20-20-20-----20-20-20-20----20-19--|
|---------------------------------------------------------------------------------------|
|---------------------------------------------------------------------------------------|

Clean Part

|------------------------------------------------------------------------------------|
|------------------------------------------------------------------------------------|
|------10------10------10------10------10----------10-----10-----10-----10-----10----|
|----8-------8-------8-------8-------8-----------8------8------8------8------8-------|__
|-10------10------10------10------10-----------8------8------8------8------8---------|  \
|------------------------------------------------------------------------------------|   |
                                                                                         |
|-------------------------------------------------------------------------------|        | x2
|-------------------------------------------------------------------------------|        |
|-----10-----10-----10-----10-----10--------10-----10-----10-----10-----10------|       /
|---8------8------8------8------8---------8------8------8------8------8---------|______/
|-6------6------6------6------6---------8------8------8------8------8-----------|
|-------------------------------------------------------------------------------|

 (2:05)
|---------------------------------------------------------------------------|
|---------------------------------------------------------------------------|
|---------------------------------------------------------------------------|
|-5-5-----------------------------------------------------------------------|
|-5-5-----------------------------------------------------------------------|
|-5-5-5-5-5-5-5-5-5-5-5-5-8-8-7-7-3-3-3-3-3-3-3-3-3-3-3-3-8-8-7-7-----------|
      . . . . . . . . . . . . . . . . . . . . . . . . . . . . . .

|---------------------------------------------------------------------------|
|---------------------------------------------------------------------------|
|---------------------------------------------------------------------------|
|-------------------------------------------------1-0-----3-0---------------|
|-------------------------------------------------1-0-----3-0---------------|
|-1-1-1-1-1-1-1-1-1-1-1-1-1-3-3-3-1-1-1-1-1-1-1-1-1-0-----3-0---------------|
  . . . . . . . . . . . . . . . . . . . . . . . .

|---------------------------------------------------------------------------|
|---------------------------------------------------------------------------|
|---------------------------------------------------------------------------|
|-5-5-----------------------------------------------------------------------|
|-5-5-----------------------------------------------------------------------|
|-5-5-5-5-5-5-5-5-5-5-5-5-5-5-5-5-3-3-3-3-3-3-3-3-3-3-3-3-3-3-3-3-----------|
      . . . . . . . . . . . . . . . . . . . . . . . . . . . . . .

|---------------------------------------------------------------------------|
|---------------------------------------------------------------------------|
|---------------------------------------------------------------------------|
|-------------------------------------------------1-0-----3-0---------------|
|-------------------------------------------------1-0-----3-0---------------|
|-1-1-1-1-1-1-1-1-1-1-1-1-1-1-1-1-1-1-1-1-1-1-1-1-1-0-----3-0---------------|
  . . . . . . . . . . . . . . . . . . . . . . . .

|---------------------------------------------------------------------------|
|---------------------------------------------------------------------------|
|----------10----------------10----------------10---------------10----------|
|----8-7-8----8-7-8----8-7-8----8-7-8----8-7-8----8-7-8-7-8-7-8----8-7-8----| x2
|-10----------------10----------------10------------------------------------|
|---------------------------------------------------------------------------|

|---------------------------------------------------------------------------|
|---------15------16------15--------------15------13------13--15------------|
|-12--15------15------15------15------15------15------15--------------------|
|---------------------------------15----------------------------------------| x2
|---------------------------------------------------------------------------|
|---------------------------------------------------------------------------|

|-------------------------------|
|-------------------------------|
|-------------------------------|
|-5--5--5--5--------------------|
|-5--5--5--5--------------------|
|-5--5--5--5--8-7-0-3-5-0-1-0---|

|---------------------------------------------------|
|---------------------------------------------------|
|------------------7--------------------------------|
|-0-0-----1-0------7----0-1-----3-1------5-3-0-1----|
|-0-0-----1-0-----------0-1-----3-1------5-3-0-1----|
|-0-0-----1-0-----------0-1-----3-1------5-3-0-1----|

|---------------------------------------------------|
|---------------------------------------------------|
|------------------7--------------------------------|
|-0-0-----1-0------7----0-1-----3-1------5-3-5-7----|
|-0-0-----1-0-----------0-1-----3-1------5-3-5-7----|
|-0-0-----1-0-----------0-1-----3-1------5-3-5-7----|

|---------------------------------------------------|
|---------------------------------------------------|
|------------------7--------------------------------|
|-0-0-----1-0------7----0-1-----3-1------5-3-0-1----|
|-0-0-----1-0-----------0-1-----3-1------5-3-0-1----|
|-0-0-----1-0-----------0-1-----3-1------5-3-0-1----|

|---------------------------------------------------------|
|---------------------------------------------------------|
|------------------7--------------------------------------|
|-0-0-----1-0------7----0-1-----3-1------3-----5--------3-|
|-0-0-----1-0-----------0-1-----3-1------3-----5--------3-|
|-0-0-----1-0-----------0-1-----3-1------3-----5--------3-|

|------------------------------------------------------------------------------|
|------------------------------------------------------------------------------|
|---------12-12-10-10-14-14-10-10-12-12-14-14----------------------------------|
|-5-5-5-5-------------------------------------1-1-1-1-1-1-1-1-1-1-1-1-1-3-3-3--| x2
|-5-5-5-5-------------------------------------1-1-1-1-1-1-1-1-1-1-1-1-1-3-3-3--|
|-5-5-5-5-------------------------------------1-1-1-1-1-1-1-1-1-1-1-1-1-3-3-3--|

|---------------------------------------------------------------------------|
|---------15------16------15--------------15------13------13--15------------|
|-12--15------15------15------15------15------15------15--------------------|
|---------------------------------15----------------------------------------| x2
|---------------------------------------------------------------------------|
|---------------------------------------------------------------------------|

|---------------------------------------------------------------------------|
|---------------------------------------------------------------------------|
|--------------------------------------------3-2----------------------------|
|-5---0---1---0------------X-5---0---1---0---3-2-1-0------------------------|
|-5---0---1---0---X--15nh--X-5---0---1---0---1-0-1-0------------------------|
|-5---0---1---0------------X-5---0---1---0-------1-0------------------------|

|---------------------------------------------------------------------------|
|---------------------------------------------------------------------------|
|-----------------------------------------------3-2-------------------------|
|-5---0---1---0-----------------5---0---1---0---3-2-1-0--5-5-5-5-----5-5-5--|
|-5---0---1---0------16nh-------5---0---1---0---1-0-1-0--5-5-5-5-----5-5-5--|
|-5---0---1---0---X-------15nh--5---0---1---0-------1-0--5-5-5-5-----5-5-5--|


************************************

| .   palm mute
| /   slide up
| \   slide down
| h   hammer-on
| p   pull-off
| ~   vibrato
| *   harmonic
| nh  natural harmonic
| x   Mute note
| b   Bend
| pb  Pre-bend
| br  Bend release
| pbr Pre-bend release
| brb Bend release bend

************************************
Tap to rate this tab
# A B C D E F G H I J K L M N O P Q R S T U V W X Y Z