Song name
# A B C D E F G H I J K L M N O P Q R S T U V W X Y Z

Breaking Benjamin - Give Me A Sign tab

Hey everybody. This is my first tab im submitting here at U.G.
I learned it by ear so if anyone catches anything that doesnt sound right, feel 
free to shoot me an email

thegoobr88@sbcglobal.net

Enjoy!

INTRO:
Eb|-------------------------------------------|--------------------------------------------------|
Bb|-------------------------------------------|--------------------------------------------------|
Gb|--9---11-12------11-12-----------9----9h11-|-12---------9--------------11-12------11h12h11-12~|
Db|----9-------12-9-------10-9-12-9---9-------|----10-9-10---10-9-10----9-------12-9-------------|
Ab|-------------------------------------------|----------------------10--------------------------|
C#|-------------------------------------------|--------------------------------------------------|

VERSE:
Eb|------------|
Bb|-8----------|
Gb|-7--4--2--5-| X2
Db|-5--4--2--5-|
Ab|-5--2--0--3-|
C#|-5----------|

PRE-CHORUS:
Eb|---------|
Bb|---------|
Gb|-------5-|
Db|-2--0--5-|
Ab|-2--0--3-|
C#|-2--0----|

CHORUS:
Eb|----------------|----------------------------|--------|
Bb|----------------|----------------------------|--------|
Gb|--------------5-|-------------------------5--|--------|
Db|-5--0h1h2--0--5-|--5--0h1h2-2-x-0-0-x-5-5-5--|--5--0--|
Ab|-5--0h1h2--0--3-|--5--0h1h2-2-x-0-0-x-5-5-3--|--5--0--|
C#|-5--0h1h2--0----|--5--0h1h2-2-x-0-0-x-5-5----|--5--0--|

INTRO

VERSE

PRE-CHORUS

CHORUS

BRIDGE I:
Eb|-------------------------------------------------|
Bb|-------------------------------------------------|
Gb|-5---------5-------5---------5-------5--x-x-x-x--|
Db|-5--0-2--0-5-5-5-0-5--0-2--0-5-5-5-0-5--x-x-x-x--|
Ab|-3--0-2--0-3-5-5-0-3--0-2--0-3-5-5-0-3--x-x-x-x--|
C#|----0-2--0---5-5-0----0-2--0---5-5-0----x-x-x-x--|

PRE-CHORUS

CHORUS

OUTRO:
Eb|-7-7-7-7-7-7-7-7--5-5-5-5-5-5-5-5--12-12-12-12-12-12-12-12--8-8-8-8-8-8-8-8--|
Bb|-8-8-8-8-8-8-8-8--8-8-8-8-8-7-7-7--12-12-12-12-12-12-12-12--8-8-8-8-8-8-8-8--|
Gb|-----------------------------------------------------------------------------|
Db|-----------------------------------------------------------------------------|
Ab|-----------------------------------------------------------------------------|
C#|-----------------------------------------------------------------------------|


Eb|-7-7-7-7-7-7-7-7--0-0-0-0-0-0--1-1--2-2-2-2-2-2-2-2--3-3-3-3-3-3-3-3-|
Bb|-8-8-8-8-8-8-8-8--3-3-3-3-3-3--4-4--5-5-5-5-5-5-5-5--3-3-3-3-3-3-3-3-|
Gb|-7-7-7-7-7-7-7-7--2-2-2-2-2-2--3-3--4-4-4-4-4-4-4-4--5-5-5-5-5-5-5-5-|
Db|-5-5-5-5-5-5-5-5--0-0-0-0-0-0--1-1--2-2-2-2-2-2-2-2--5-5-5-5-5-5-5-5-|
Ab|-5-5-5-5-5-5-5-5--0-0-0-0-0-0--1-1--2-2-2-2-2-2-2-2--3-3-3-3-3-3-3-3-|
C#|-5-5-5-5-5-5-5-5--0-0-0-0-0-0--1-1--2-2-2-2-2-2-2-2------------------|


Eb|---------------------------|
Bb|---------------------------|
Gb|---------------------5~~~~-|
Db|-2-2-xx-0-0-xx--5-5--5~~~~-|
Ab|-2-2-xx-0-0-xx--5-5--3~~~~-|
C#|-2-2-xx-0-0-xx--5-5--------|
Tap to rate this tab
# A B C D E F G H I J K L M N O P Q R S T U V W X Y Z