Song name
# A B C D E F G H I J K L M N O P Q R S T U V W X Y Z

Breaking Benjamin - Give Me A Sign tab

-------------------------------------------------------------------------------
			Give Me A Sign - Breaking Benjamin
-------------------------------------------------------------------------------
Tabbed by: metalmonkey147
Email:

Tuning: Drop C

|--------------------------------------------------------------------------------------------|
|------8--9--------8--9-------------------8---9-----------------------------8-9------9-8--9--|
|------------------------------8---10---------------------10------------------------------8--|
|--10----------10---------11---------------------11-10-11----11-10-11----10------10-------6--|
|---------------------------------------------------------------------11---------------------|
|--------------------------------------------------------------------------------------------|

Sorry i dont know the acoustic part yet

 (0:36)
|--------------------------------------------------|
|--------------------------------------------------|
|-------------------------6--6--6--6--6--6--6--6---|
|-3--3--3--3--1--1--1--1--6--6--6--6--6--6--6--6---|
|-3--3--3--3--1--1--1--1--4--4--4--4--4--4--4--4---|
|-3--3--3--3--1--1--1--1---------------------------|

|--------------------------------------------------|
|--------------------------------------------------|
|--------------------------------------------------|
|-6--6--6--6--6--6--6--6--1--1--1--1--1--1--2--2---|
|-6--6--6--6--6--6--6--6--1--1--1--1--1--1--2--2---|
|-6--6--6--6--6--6--6--6--1--1--1--1--1--1--2--2---|

|--------------------------------------------------|
|--------------------------------------------------|
|-------------------------6--6--6--6--6--6--6--6---|
|-3--3--3--3--1--1--1--1--6--6--6--6--6--6--6--6---|
|-3--3--3--3--1--1--1--1--4--4--4--4--4--4--4--4---|
|-3--3--3--3--1--1--1--1---------------------------|

|--------------------------------------------------|
|--------------------------------------------------|
|--------------------------------------------------|
|-6--6--6--6--6--6--6--6--1--1--1--1--1--1--2--2---|
|-6--6--6--6--6--6--6--6--1--1--1--1--1--1--2--2---|
|-6--6--6--6--6--6--6--6--1--1--1--1--1--1--2--2---|

|--------------------------------------------------|
|--------------------------------------------------|
|----------------------------------6--------(6)----|
|-3--3--3--3--1--1--1--1--6--6-----6--------(6)----|
|-3--3--3--3--1--1--1--1--6--6-----4--------(4)----|
|-3--3--3--3--1--1--1--1--6--6---------------------|

|--------------------------------------------------|
|--------------------------------------------------|
|--------------------------------------------------|
|-6--6--6--6--6--6--6--6--1--1--1--1--1--1--2--2---|
|-6--6--6--6--6--6--6--6--1--1--1--1--1--1--2--2---|
|-6--6--6--6--6--6--6--6--1--1--1--1--1--1--2--2---|

|--------------------------------------------------------------------------------------------|
|------8--9--------8--9-------------------8---9-----------------------------8-9------9-8--9--|
|------------------------------8---10---------------------10------------------------------8--|
|--10----------10---------11---------------------11-10-11----11-10-11----10------10-------6--|
|---------------------------------------------------------------------11---------------------|
|--------------------------------------------------------------------------------------------|

Again, sorry, no acoustic part yet

 (1:50)
|--------------------------------------------------|
|--------------------------------------------------|
|-------------------------6--6--6--6--6--6--6--6---|
|-3--3--3--3--1--1--1--1--6--6--6--6--6--6--6--6---|
|-3--3--3--3--1--1--1--1--4--4--4--4--4--4--4--4---|
|-3--3--3--3--1--1--1--1---------------------------|

|--------------------------------------------------|
|--------------------------------------------------|
|--------------------------------------------------|
|-6--6--6--6--6--6--6--6--1--1--1--1--1--1--2--2---|
|-6--6--6--6--6--6--6--6--1--1--1--1--1--1--2--2---|
|-6--6--6--6--6--6--6--6--1--1--1--1--1--1--2--2---|

|--------------------------------------------------|
|--------------------------------------------------|
|-------------------------6--6--6--6--6--6--6--6---|
|-3--3--3--3--1--1--1--1--6--6--6--6--6--6--6--6---|
|-3--3--3--3--1--1--1--1--4--4--4--4--4--4--4--4---|
|-3--3--3--3--1--1--1--1---------------------------|

|--------------------------------------------------|
|--------------------------------------------------|
|--------------------------------------------------|
|-6--6--6--6--6--6--6--6--1--1--1--1--1--1--2--2---|
|-6--6--6--6--6--6--6--6--1--1--1--1--1--1--2--2---|
|-6--6--6--6--6--6--6--6--1--1--1--1--1--1--2--2---|

|--------------------------------------------------|
|--------------------------------------------------|
|----------------------------------6--------(6)----|
|-3--3--3--3--1--1--1--1--6--6-----6--------(6)----|
|-3--3--3--3--1--1--1--1--6--6-----4--------(4)----|
|-3--3--3--3--1--1--1--1--6--6---------------------|

|--------------------------------------------------|
|--------------------------------------------------|
|--------------------------------------------------|
|-6--6--6--6--6--6--6--6--1--1--1--1--1--1--1--1---|
|-6--6--6--6--6--6--6--6--1--1--1--1--1--1--1--1---|
|-6--6--6--6--6--6--6--6--1--1--1--1--1--1--1--1---|

|----------------------------------------11----|
|-13-11-13---13-11------13-11-13---13-11-------|
|------------------13--------------------------|
|----------------------------------------------|
|----------------------------------------------|
|----------------------------------------------|

|--------------------------------------------------|
|-13-11-13---13-11-------11-11/13\11-11------------|
|------------------13-13-----------------13-12-13--|
|--------------------------------------------------|
|--------------------------------------------------|
|--------------------------------------------------|

|----------------------------------------11----|
|-13-11-13---13-11------13-11-13---13-11-------|
|------------------13--------------------------|
|----------------------------------------------|
|----------------------------------------------|
|----------------------------------------------|

|--------------------------------------------------|
|-13-11-13---13-11-------11-11/13\11-11------------|
|------------------13-13-----------------13-12-13--|
|--------------------------------------------------|
|--------------------------------------------------|
|--------------------------------------------------|

|--------------------------------|
|--------------------------------|
|--6-------(6)-------------------|
|--6-------(6)---------X-X-X-X---|
|--4-------(4)---------X-X-X-X---|
|----------------------X-X-X-X---|

|--------------------------------------------------|
|--------------------------------------------------|
|-------------------------6--6--6--6--6--6--6--6---|
|-3--3--3--3--1--1--1--1--6--6--6--6--6--6--6--6---|
|-3--3--3--3--1--1--1--1--4--4--4--4--4--4--4--4---|
|-3--3--3--3--1--1--1--1---------------------------|

|--------------------------------------------------|
|--------------------------------------------------|
|--------------------------------------------------|
|-6--6--6--6--6--6--6--6--1--1--1--1--1--1--2--2---|
|-6--6--6--6--6--6--6--6--1--1--1--1--1--1--2--2---|
|-6--6--6--6--6--6--6--6--1--1--1--1--1--1--2--2---|

|--------------------------------------------------|
|--------------------------------------------------|
|-------------------------6--6--6--6--6--6--6--6---|
|-3--3--3--3--1--1--1--1--6--6--6--6--6--6--6--6---|
|-3--3--3--3--1--1--1--1--4--4--4--4--4--4--4--4---|
|-3--3--3--3--1--1--1--1---------------------------|

|--------------------------------------------------|
|--------------------------------------------------|
|--------------------------------------------------|
|-6--6--6--6--6--6--6--6--1--1--1--1--1--1--2--2---|
|-6--6--6--6--6--6--6--6--1--1--1--1--1--1--2--2---|
|-6--6--6--6--6--6--6--6--1--1--1--1--1--1--2--2---|

|---------------------------------------------------------------------|
|---------------------------------------------------------------------|
|----------------------------------6--------(6)------(6)-----(6)------|
|-3--3--3--3--1--1--1--1--6--6-----6--------(6)------(6)-----(6)------|
|-3--3--3--3--1--1--1--1--6--6-----4--------(4)------(4)-----(4)------|
|-3--3--3--3--1--1--1--1--6--6----------------------------------------|

|------------------------------------------------------------------|
|-13--13--13--13--13--13--13--13--11--11--11--11--11--11--11--11---|
|-13--13--13--13--13--13--13--13--13--13--13--13--12--12--12--12---|
|------------------------------------------------------------------|
|------------------------------------------------------------------|
|------------------------------------------------------------------|

|------------------------------------------------------------------|
|-18--18--18--18--18--18--18--18--14--14--14--14--14--14--14--14---|
|-17--17--17--17--17--17--17--17--13--13--13--13--13--13--13--13---|
|------------------------------------------------------------------|
|------------------------------------------------------------------|
|------------------------------------------------------------------|

|--------------------------------------------------|
|--------------------------------------------------|
|--------------------------------------------------|
|-6--6--6--6--6--6--6--6--1--1--1--1--1--1--2--2---|
|-6--6--6--6--6--6--6--6--1--1--1--1--1--1--2--2---|
|-6--6--6--6--6--6--6--6--1--1--1--1--1--1--2--2---|

|--------------------------------------------------|
|--------------------------------------------------|
|-------------------------6--6--6--6--6--6--6--6---|
|-3--3--3--3--3--3--3--3--6--6--6--6--6--6--6--6---|
|-3--3--3--3--3--3--3--3--4--4--4--4--4--4--4--4---|
|-3--3--3--3--3--3--3--3---------------------------|

|--------------------------------------------------|
|--------------------------------------------------|
|--------------------------------------------------|
|-6--6--6--6--6--6--6--6--1--1--1--1--1--1--2--2---|
|-6--6--6--6--6--6--6--6--1--1--1--1--1--1--2--2---|
|-6--6--6--6--6--6--6--6--1--1--1--1--1--1--2--2---|

|--------------------------------------------------|
|--------------------------------------------------|
|-------------------------6--6--6--6--6--6--6--6---|
|-3--3--3--3--3--3--3--3--6--6--6--6--6--6--6--6---|
|-3--3--3--3--3--3--3--3--4--4--4--4--4--4--4--4---|
|-3--3--3--3--3--3--3--3---------------------------|

|--------------------------------------------------|
|--------------------------------------------------|
|-----------------------------------6--------------|
|-3--3--X-X--X-1--1--X-X--X-6--6----6--------------|
|-3--3--X-X--X-1--1--X-X--X-6--6----4--------------|
|-3--3--X-X--X-1--1--X-X--X-6--6-------------------|


************************************

| .   palm mute
| /   slide up
| \   slide down
| h   hammer-on
| p   pull-off
| ~   vibrato
| *   harmonic
| x   Mute note
| b   Bend
| pb  Pre-bend
| br  Bend release
| pbr Pre-bend release
| brb Bend release bend

************************************
Tap to rate this tab
# A B C D E F G H I J K L M N O P Q R S T U V W X Y Z