Song name
# A B C D E F G H I J K L M N O P Q R S T U V W X Y Z

Breaking Benjamin - I Will Not Bow tab

Breaking Benjamin
I Will Not Bow
Tuning Drop Bb or A#
Bb F Bb Eb G C=A# F A# F# G C

/=SLIDE
~=VIBRATO
+=HARMONIC
*=PINCH HARMONIC
x=STRUM MUTED STRINGS
pm=PALM MUTE
b=BEND
r=RETURN BEND
-----------------------------------------------------------------------------
This is the whole song just not both guitars its either both or just one.


INTRO
E-------------------------------------------------|
B-------------------------------------------------| PLAY TWICE TAP ALL NOTES.
G--4-9-4-7-4-----4---4-----4-9-4-7-4-------4------|
D-2---2---2--10-2-9-2-7/9-2---2---2--1010-2--7----|
A-------------------------------------------------|
E-------------------------------------------------|
-

E----------------------------------------------------------------------------|
B----------------------------------------------------------------------------|
G-----------------------------------------/171717171717161616161616121212129-|
D-0h2-2-2/3/2-2-2------0h2-2-2/3/2-2-2/5--/-x-x-x-x-x-x-x-x-x-x-x-x-x-x-x-xx-|
A-0h2-2-2/3/2-2-2----3-0h2-2-2/3/2-2-2/5--/151515151515141414141414101010107-|
E-0h2-2-2/3/2-2-2-0h2--0h2-2-2/3/2-2-2/5-------------------------------------|
-

E------------------------------|
B------------------------------|
G--12-14--16-17-16-------------|
D---x--x---x--x--x-------------|
A--10-12--14b15r14-------------|
E------------------------------|
-
VERSE:1
E-------------------------------------0-|
B-----------------------------------0---|
G---------------------------------------|PLAY TWICE
D-9---------------------10------0-------|
A-7---------------------7-------0-------|
E-7---------------------7-------0-------|
-

E---------------------------------------------------------------------|
B---------------------------------------------------------------------|
G---------------------------------------------------------------------|PLAY 2X
D-2-2-2--------------2-2-2---------------------------0-0-0------4/5/4-|
A-2-2-2------2-------2-2-2------2b-3-3-3-------------0-0-0------4/5/4-|
E-2-2-2-0h5h7-h7-5h7-2-2-2-0h5h7---2-2-2-0h2p05/40h2-0-0-0-0h4p04/5/4-|
PM.....              .....         .....             .....
-

CHORUS
E
B-----------------------------------12--------------12-------|
G-------4-----------12-14-----------11--------------11-------|PLAY 2X
D-2-2-2-2-----0-0-0--x--x--10-10-10-10-----10-10-10-10-------|
A-2-2-2-2-----0-0-0-10-12--10-10-10-10-----10-10-10-10-------|
E-2-2-2-2-----0-0-0--------10-10-10-10-----10-10-10-10-------|
-

BACK TO INTRO
VERSE:2 PLAY FIRST PART ONCE
THEN
E
B
G
D-22-2-222---22---24-5-88-8-888----8-6-5-|
A-22-2-222---22---25-6-88-8-888----8-7-6-|
E-22-2-222---22---24-5-88-8-888----8-6-5-|

CHORUS:2X

BRIDGE
E--------------------------------------------|
B----------------------------12-----------12-|
G----------------------------11-----------11-|
D-0h2-222----0-22---10-10-10-10--10-10-10-10-|
A-0h2-222----0-22---10-10-10-10--10-10-10-10-|
E-0h2-222----0-22---10-10-10-10--10-10-10-10-|
-
BENS RIFF DURING AARONS SOLO
E-------------------------|-------------------------|
B-------------------------|-------------------------|
G-----------*2------------|-------------------------|PLAY 4X
D-0-2-0-*5-3--0-2-0-0-3-0-|-0-3-0-6-5-3-0-3-0-5-3-1-|
A-------------------0-3-0-|-0-3-0-6-5-3-0-3-0-5-3-1-|
E-------------------0-3-0-|-0-3-0-6-5-3-0-3-0-5-3-1-|
-

CHORUS:2X
BRIDGE:2X

OUTRO
E----------------------------------|
B----------------------------------|
G----------------------------------|
D-032-0-2-3-0--3-032-0-3-870570350-|
A-032-0-2-3-0----032-0-3-870570350-|
E-032-0-2-3-0-2--032-0-3-870570350-|
Tap to rate this tab
# A B C D E F G H I J K L M N O P Q R S T U V W X Y Z