Song name
# A B C D E F G H I J K L M N O P Q R S T U V W X Y Z

Breaking Benjamin - Give Me A Sign tab

----------------------------------------------------------------------------
                                Give Me A Sign
                              Breaking Benjamin
----------------------------------------------------------------------------

This is a suggested song that I have come to like a lot. The variation between the
lead guitar and rhythmic guitar is beautiful, and the lyrics are catchy. However,
there is a flaw. It is very hard to hear the lead guitar for the chorus so be
aware of a few errors, but I did my best. I hope you like it! Enjoy!

Username: dkm817 (same on X box live)
Email: guitardrums@rockfan.com

Guitar 1 Rhythmic (C# G# C# F# A# D#)
Guitar 2 Lead     (C# G# C# F# A# D#)
Guitar 3 Mixed    (C# G# C# F# A# D#)

Intro

Guitar 1
D#-----------------------------------------------|
A#-----------------------------------------------|
F#-----------------------------------------------|
C#-2--2--2--2--7--7--7--7--7--7--7--7--7--7---9~-|
G#-2--2--2--2--5--5--5--5--7--7--7--7--7--7---9~-|
C#-2--2--2--2--5--5--5--5--7--7--7--7--7--7---9~-|

Guitar 2
D#-----------------------------------------------|
A#-------7--8---------7--8--------------------7~-|
F#-9-----------9-7----------------7~~~-9~~~------|
C#----9------------9--------10~~~----------------|
G#-----------------------------------------------|
C#-----------------------------------------------|

Guitar 3
D#-----------------------------------------------|
A#-------7--8---------7--8--------------------7~-|
F#-9-----------9-7-------------------------------|
C#----9------------9--------10~~~----------------|
G#--------------------------------9~~~-10~~------|
C#-----------------------------------------------|

Guitar 1
D#-------------------------------------------------|
A#-------------------------------------------------|
F#-------------------------------------------------|
C#-10-10-10-10-10-10-10-10-5--5--5--5--7--7--------|
G#-10-10-10-10-10-10-10-10-5--5--5--5--5--5--------|
C#-10-10-10-10-10-10-10-10-5--5--5--5--5--5--4h5p4-|

Guitar 2
D#-------------------------------------------------|
A#-8-----------------------------7--8--------7h8p7-|
F#-------------9*----------------------------------|
C#----10-9--10----10-9--10----9--------7--9--------|
G#-------------------------10----------------------|
C#-------------------------------------------------|

Guitar 3
D#-------------------------------------------------|
A#-8-----------------------------7--8--------7h8p7-|
F#-------------9-----------------------------------|
C#----10-9--10----10-9--10----9--------7--9--------|
G#-------------------------10----------------------|
C#-------------------------------------------------|

Verse 1

Guitar 1 & 2
D#----------------------
A#-7~~~~~~~~~~~~~~~~~~~~
F#-6~~~~~~~~~~~~~~~~~~~~
C#-5~~~~~~~~~~~~~~~~~~~~
G#-5~~~~~~~~~~~~~~~~~~~~
C#-5~~~~~~~~~~~~~~~~~~~~

Guitar 3 Acoutic(Iím not good at acoustic guitar so bare with me here)
D#--------------------2~-2~-2~-2-2~-2~~~--------------------------------------|
A#-5~-5~-5~-5-5~-5~~~-x~-x~-x~-x-x~-x~~~-5~-5~-5~-5-5~-5~~~-5~-5~-5~-5-5~-5~~-|
F#-7~-7~-7~-7-7~-7~~~-x~-x~-x~-x-x~-x~~~-x~-x~-x~-x-x~-x~~~-x~-x~-x~-x-x~-x~~-|
C#-5~-5~-5~-5-5~-5~~~-2~-2~-2~-2-2~-2~~~-7~-7~-7~-7-7~-7~~~-5~-5~-5~-5-5~-5~~-|
G#--------------------2~-2~-2~-2-2~-2~~~-7~-7~-7~-7-7~-7~~~-5~-5~-5~-5-5~-5~~-|
C#----------------------------------------------------------------------------|

Guitar 2
D#---------------------------------------------------3~~~~----------------------|
A#---------------3~~~~-------------5~~~~---------5~~--------------------5~~-7-8-|
F#-----------------------------4~~-----------4~~--------------------4~~---------|
C#-----------5~~-----------4~~-----------2~~--------------------5~~-------------|
G#---------------------2~~----------------------------------5~~-----------------|
C#------------------------------------------------------------------------------|

Guitar 3
D#--------------------2~-2~-2~-2-2~-2~~~---------------------------------------|
A#-5~-5~-5~-5-5~-5~~~-x~-x~-x~-x-x~-x~~~-5~-5~-5~-5-5~-5~~~-5~-5~-5~-5-5~-5----|
F#-7~-7~-7~-7-7~-7~~~-x~-x~-x~-x-x~-x~~~-x~-x~-x~-x-x~-x~~~-x~-x~-x~-x-x~-x----|
C#-5~-5~-5~-5-5~-5~~~-2~-2~-2~-2-2~-2~~~-7~-7~-7~-7-7~-7~~~-5~-5~-5~-5-5~-5----|
G#--------------------2~-2~-2~-2-2~-2~~~-7~-7~-7~-7-7~-7~~~-5~-5~-5~-5-5~-5----|
C#-----------------------------------------------------------------------------|

Chorus

Guitar 1 & 3
D#---------------------------------------------------------------|
A#---------------------------------------------------------------|
F#---------------------------------5---5---5---5---5---5---5---5-|
C#-2---2---2---2---0---0---0---0---5---5---5---5---5---5---5---5-|
G#-2---2---2---2---0---0---0---0---3---3---3---3---3---3---3---3-|
C#-2---2---2---2---0---0---0---0---------------------------------|

Guitar 2
D#-------------------------------------------------10----------10-|
A#-----12--10--12~~~---12--10----------12--10--12------12--10-----|
F#-----------------------------12~~~------------------------------|
C#----------------------------------------------------------------|
G#----------------------------------------------------------------|
C#----------------------------------------------------------------|

Guitar 1 & 3
D#---------------------------------------------------------------|
A#---------------------------------------------------------------|
F#---------------------------------------------------------------|
C#-5---5---5---5---5---5---5---5---0---0---0---0---0---0---1---1-|
G#-5---5---5---5---5---5---5---5---0---0---0---0---0---0---1---1-|
C#-5---5---5---5---5---5---5---5---0---0---0---0---0---0---1---1-|

Guitar 2
D#-------------10--13--13-13-----------------------------------------------|
A#-----12--10----------------13--13-12-10--10--------------------10--10-10-|
F#-12------------------------------------------12--11--11--12-12-----------|
C#-------------------------------------------------------------------------|
G#-------------------------------------------------------------------------|
C#-------------------------------------------------------------------------|

Guitar 1 & 3
D#---------------------------------------------------------------|
A#---------------------------------------------------------------|
F#---------------------------------5---5---5---5---5---5---5---5-|
C#-2---2---2---2---0---0---0---0---5---5---5---5---5---5---5---5-|
G#-2---2---2---2---0---0---0---0---3---3---3---3---3---3---3---3-|
C#-2---2---2---2---0---0---0---0---------------------------------|

Guitar 2
D#-------------------------------------------------10-------------|
A#-----12--10--12~~~---12--10----------12--10--12------12--10--12-|
F#-----------------------------12~~~------------------------------|
C#----------------------------------------------------------------|
G#----------------------------------------------------------------|
C#----------------------------------------------------------------|

Guitar 1 & 3
D#---------------------------------------------------------------|
A#---------------------------------------------------------------|
F#---------------------------------------------------------------|
C#-5---5---5---5---5---5---5---5---0---0---0---0---0---0---1---1-|
G#-5---5---5---5---5---5---5---5---0---0---0---0---0---0---1---1-|
C#-5---5---5---5---5---5---5---5---0---0---0---0---0---0---1---1-|

Guitar 2
D#-------------10----------------------------------------------------------|
A#-----12--10------10--10-10-13--13-12-10--10--------------------10--10-10-|
F#-12------------------------------------------12--11--11--12-12-----------|
C#-------------------------------------------------------------------------|
G#-------------------------------------------------------------------------|
C#-------------------------------------------------------------------------|

Guitar 1 & 3
D#---------------------------------------------------------------|
A#---------------------------------------------------------------|
F#---------------------------------------------5~~~~~~-5---5---5-|
C#-2---2---2---2---0---0---0---0---5---5-------5~~~~~~-5---5---5-|
G#-2---2---2---2---0---0---0---0---5---5-------3~~~~~~-3---3---3-|
C#-2---2---2---2---0---0---0---0---5---5-------------------------|

Guitar 2
D#---------------------------------------------------------------|
A#-----12--10--12~~~---12--10----------12--10--------------------|
F#-----------------------------12~~~-----------12~~~~~~~~~~~~~~~-|
C#---------------------------------------------------------------|
G#---------------------------------------------------------------|
C#---------------------------------------------------------------|

Guitar 1 & 3
D#---------------------------------------------------------------|
A#---------------------------------------------------------------|
F#---------------------------------------------------------------|
C#-5---5---5---5---5---5---5---5---0---0---0---0---0---0---0---0-|
G#-5---5---5---5---5---5---5---5---0---0---0---0---0---0---0---0-|
C#-5---5---5---5---5---5---5---5---0---0---0---0---0---0---0---0-|

Guitar 2
D#--------------------------------------------------------------|
A#-----------------------------------------------10-------------|
F#-----12--11--12~~~---12--11--12~~~---12-11-12------12--11--12-|
C#--------------------------------------------------------------|
G#--------------------------------------------------------------|
C#--------------------------------------------------------------|

Break Off

Guitar 1
D#-----------------------------------------------|
A#-----------------------------------------------|
F#-----------------------------------------------|
C#-2--2--2--2--7--7--7--7--7--7--7--7--7--7---9~-|
G#-2--2--2--2--5--5--5--5--7--7--7--7--7--7---9~-|
C#-2--2--2--2--5--5--5--5--7--7--7--7--7--7---9~-|

Guitar 2
D#-----------------------------------------------|
A#-------7--8---------7--8--------------------7~-|
F#-9-----------9-7----------------7~~~-9~~~------|
C#----9------------9--------10~~~----------------|
G#-----------------------------------------------|
C#-----------------------------------------------|

Guitar 3
D#-----------------------------------------------|
A#-------7--8---------7--8--------------------7~-|
F#-9-----------9-7-------------------------------|
C#----9------------9--------10~~~----------------|
G#--------------------------------9~~~-10~~------|
C#-----------------------------------------------|

Guitar 1
D#-------------------------------------------------|
A#-------------------------------------------------|
F#-------------------------------------------------|
C#-10-10-10-10-10-10-10-10-5--5--5--5--7--7--------|
G#-10-10-10-10-10-10-10-10-5--5--5--5--5--5--------|
C#-10-10-10-10-10-10-10-10-5--5--5--5--5--5--4h5p4-|

Guitar 2
D#-------------------------------------------------|
A#-8-----------------------------7--8--------7h8p7-|
F#-------------9*----------------------------------|
C#----10-9--10----10-9--10----9--------7--9--------|
G#-------------------------10----------------------|
C#-------------------------------------------------|

Guitar 3
D#-------------------------------------------------|
A#-8-----------------------------7--8--------7h8p7-|
F#-------------9-----------------------------------|
C#----10-9--10----10-9--10----9--------7--9--------|
G#-------------------------10----------------------|
C#-------------------------------------------------|

Verse 2

Guitar 1
D#----------------------
A#-7~~~~~~~~~~~~~~~~~~~~
F#-6~~~~~~~~~~~~~~~~~~~~
C#-5~~~~~~~~~~~~~~~~~~~~
G#-5~~~~~~~~~~~~~~~~~~~~
C#-5~~~~~~~~~~~~~~~~~~~~

Guitar 2
D#------------------------------------------------------------------------------|
A#---------------3~~~~-------------3~~~~-------------1~~~~--------------3~~-----|
F#-----------------------------4~~---------------0~~----------------4~~---------|
C#-----------5~~-----------4~~---------------2~~----------------5~~---------2-5-|
G#---------------------2~~---------------0~~----------------3~~-----------------|
C#------------------------------------------------------------------------------|

Guitar 3
D#--------------------2~-2~-2~-2-2~-2~~~--------------------------------------|
A#-5~-5~-5~-5-5~-5~~~-x~-x~-x~-x-x~-x~~~-5~-5~-5~-5-5~-5~~~-5~-5~-5~-5-5~-5~~-|
F#-7~-7~-7~-7-7~-7~~~-x~-x~-x~-x-x~-x~~~-x~-x~-x~-x-x~-x~~~-x~-x~-x~-x-x~-x~~-|
C#-5~-5~-5~-5-5~-5~~~-2~-2~-2~-2-2~-2~~~-7~-7~-7~-7-7~-7~~~-5~-5~-5~-5-5~-5~~-|
G#--------------------2~-2~-2~-2-2~-2~~~-7~-7~-7~-7-7~-7~~~-5~-5~-5~-5-5~-5~~-|
C#----------------------------------------------------------------------------|

Guitar 2
D#---------------------------------------------------3~~~~----------------------|
A#---------------3~~~~-------------5~~~~---------5~~--------------------5~~-7-8-|
F#-----------------------------4~~-----------4~~--------------------4~~---------|
C#-----------5~~-----------4~~-----------2~~--------------------5~~-------------|
G#---------------------2~~----------------------------------5~~-----------------|
C#------------------------------------------------------------------------------|

Guitar 3
D#--------------------2~-2~-2~-2-2~-2~~~--------------------------------------|
A#-5~-5~-5~-5-5~-5~~~-x~-x~-x~-x-x~-x~~~-5~-5~-5~-5-5~-5~~~-5~-5~-5~-5-5~-5~~-|
F#-7~-7~-7~-7-7~-7~~~-x~-x~-x~-x-x~-x~~~-x~-x~-x~-x-x~-x~~~-x~-x~-x~-x-x~-x~~-|
C#-5~-5~-5~-5-5~-5~~~-2~-2~-2~-2-2~-2~~~-7~-7~-7~-7-7~-7~~~-5~-5~-5~-5-5~-5~~-|
G#--------------------2~-2~-2~-2-2~-2~~~-7~-7~-7~-7-7~-7~~~-5~-5~-5~-5-5~-5~~-|
C#----------------------------------------------------------------------------|

Chorus

Guitar 1 & 3
D#---------------------------------------------------------------|
A#---------------------------------------------------------------|
F#---------------------------------5---5---5---5---5---5---5---5-|
C#-2---2---2---2---0---0---0---0---5---5---5---5---5---5---5---5-|
G#-2---2---2---2---0---0---0---0---3---3---3---3---3---3---3---3-|
C#-2---2---2---2---0---0---0---0---------------------------------|

Guitar 2
D#-------------------------------------------------10----------10-|
A#-----12--10--12~~~---12--10----------12--10--12------12--10-----|
F#-----------------------------12~~~------------------------------|
C#----------------------------------------------------------------|
G#----------------------------------------------------------------|
C#----------------------------------------------------------------|

Guitar 1 & 3
D#---------------------------------------------------------------|
A#---------------------------------------------------------------|
F#---------------------------------------------------------------|
C#-5---5---5---5---5---5---5---5---0---0---0---0---0---0---1---1-|
G#-5---5---5---5---5---5---5---5---0---0---0---0---0---0---1---1-|
C#-5---5---5---5---5---5---5---5---0---0---0---0---0---0---1---1-|

Guitar 2
D#-------------10--13--13-13-----------------------------------------------|
A#-----12--10----------------13--13-12-10--10--------------------10--10-10-|
F#-12------------------------------------------12--11--11--12-12-----------|
C#-------------------------------------------------------------------------|
G#-------------------------------------------------------------------------|
C#-------------------------------------------------------------------------|

Guitar 1 & 3
D#---------------------------------------------------------------|
A#---------------------------------------------------------------|
F#---------------------------------5---5---5---5---5---5---5---5-|
C#-2---2---2---2---0---0---0---0---5---5---5---5---5---5---5---5-|
G#-2---2---2---2---0---0---0---0---3---3---3---3---3---3---3---3-|
C#-2---2---2---2---0---0---0---0---------------------------------|

Guitar 2
D#-------------------------------------------------10-------------|
A#-----12--10--12~~~---12--10----------12--10--12------12--10--12-|
F#-----------------------------12~~~------------------------------|
C#----------------------------------------------------------------|
G#----------------------------------------------------------------|
C#----------------------------------------------------------------|

Guitar 1 & 3
D#---------------------------------------------------------------|
A#---------------------------------------------------------------|
F#---------------------------------------------------------------|
C#-5---5---5---5---5---5---5---5---0---0---0---0---0---0---1---1-|
G#-5---5---5---5---5---5---5---5---0---0---0---0---0---0---1---1-|
C#-5---5---5---5---5---5---5---5---0---0---0---0---0---0---1---1-|

Guitar 2
D#-------------10----------------------------------------------------------|
A#-----12--10------10--10-10-13--13-12-10--10--------------------10--10-10-|
F#-12------------------------------------------12--11--11--12-12-----------|
C#-------------------------------------------------------------------------|
G#-------------------------------------------------------------------------|
C#-------------------------------------------------------------------------|

Guitar 1 & 3
D#---------------------------------------------------------------|
A#---------------------------------------------------------------|
F#---------------------------------------------5~~~~~~-5---5---5-|
C#-2---2---2---2---0---0---0---0---5---5-------5~~~~~~-5---5---5-|
G#-2---2---2---2---0---0---0---0---5---5-------3~~~~~~-3---3---3-|
C#-2---2---2---2---0---0---0---0---5---5-------------------------|

Guitar 2
D#---------------------------------------------------------------|
A#-----12--10--12~~~---12--10----------12--10--------------------|
F#-----------------------------12~~~-----------12~~~~~~~~~~~~~~~-|
C#---------------------------------------------------------------|
G#---------------------------------------------------------------|
C#---------------------------------------------------------------|

Guitar 1 & 3
D#---------------------------------------------------------------|
A#---------------------------------------------------------------|
F#---------------------------------------------------------------|
C#-5---5---5---5---5---5---5---5---0---0---0---0---0---0---0---0-|
G#-5---5---5---5---5---5---5---5---0---0---0---0---0---0---0---0-|
C#-5---5---5---5---5---5---5---5---0---0---0---0---0---0---0---0-|

Guitar 2
D#--------------------------------------------------------------|
A#-----------------------------------------------10-------------|
F#-----12--11--12~~~---12--11--12~~~---12-11-12------12--11--12-|
C#--------------------------------------------------------------|
G#--------------------------------------------------------------|
C#--------------------------------------------------------------|

Interlude

Guitar 1
D#---------------------------------------------------------------|
A#---------------------------------------------------------------|
F#-5---5---5---5---5---5-----------------------------------------|
C#-5---5---5---5---5---5---0---0---2---2---2---2---2---2---0---0-|
G#-3---3---3---3---3---3---0---0---2---2---2---2---2---2---0---0-|
C#-------------------------0---0---2---2---2---2---2---2---0---0-|

Guitar 2
D#-------------------------------------------------------------11~~~-|
A#-----12--10--12~~~---12--10----------12--10--12~~~---12--10--------|
F#-----------------------------12~~~---------------------------------|
C#-------------------------------------------------------------------|
G#-------------------------------------------------------------------|
C#-------------------------------------------------------------------|

Guitar 1
D#---------------------------------------------------------------|
A#---------------------------------------------------------------|
F#-5---5---5---5---5---5---5---5---------------------------------|
C#-5---5---5---5---5---5---5---5---5---5--------0~~~~~-0---0---0-|
G#-3---3---3---3---3---3---3---3---5---5--------0~~~~~-0---0---0-|
C#---------------------------------5---5--------0~~~~~-0---0---0-|

Guitar 2
D#-------------------------------------------------------------------|
A#-----12--10--12~~~---12--10------12--12-------10~~~~---------------|
F#-----------------------------12~---------------------12--11--12~~~-|
C#-------------------------------------------------------------------|
G#-------------------------------------------------------------------|
C#-------------------------------------------------------------------|

Guitar 1
D#---------------------------------------------------------------|
A#---------------------------------------------------------------|
F#-5---5---5---5---5---5-----------------------------------------|
C#-5---5---5---5---5---5---0---0---2---2---2---2---2---2---0---0-|
G#-3---3---3---3---3---3---0---0---2---2---2---2---2---2---0---0-|
C#-------------------------0---0---2---2---2---2---2---2---0---0-|

Guitar 2
D#-------------------------------------------------------------11~~~-|
A#-----12--10--12~~~---12--10----------12--10--12~~~---12--10--------|
F#-----------------------------12~~~---------------------------------|
C#-------------------------------------------------------------------|
G#-------------------------------------------------------------------|
C#-------------------------------------------------------------------|

Guitar 3
D#-------------------------------------------------------------------|
A#-------------------------------------------------------------------|
F#-----12--11--12~~~---12--11----------12--11--12~~~---12--11--------|
C#-----------------------------12~~~---------------------------12~~~-|
G#-------------------------------------------------------------------|
C#-------------------------------------------------------------------|

Guitar 1
D#---------------------------------------------------------------|
A#---------------------------------------------------------------|
F#-5---5---5---5---5---5---5---5---------------------------------|
C#-5---5---5---5---5---5---5---5---5---5--------0~~~~~-0---0---0-|
G#-3---3---3---3---3---3---3---3---5---5--------0~~~~~-0---0---0-|
C#---------------------------------5---5--------0~~~~~-0---0---0-|

Guitar 2
D#-----------------------------------------------------------------|
A#-----12--10--12~~~---12--10------12--12-------10~~~~-------------|
F#-----------------------------12~---------------------12--11--12~-|
C#-----------------------------------------------------------------|
G#-----------------------------------------------------------------|
C#-----------------------------------------------------------------|

Guitar 3
D#-----------------------------------------------------------------|
A#-----------------------------------------------------------------|
F#-----12--11--12~~~---12--11------12--12-------11~~~~-12--11--12~-|
C#-----------------------------12~---------------------------------|
G#-----------------------------------------------------------------|
C#-----------------------------------------------------------------|

All Guitars
D#--------------------------------------|
A#--------------------------------------|
F#-5~~~~~~~~~~~~~~~~~~~~~~~~------------|
C#-5~~~~~~~~~~~~~~~~~~~~~~~~-x--x--x--x-|
G#-3~~~~~~~~~~~~~~~~~~~~~~~~-x--x--x--x-|
C#---------------------------x--x--x--x-|

Chorus

Guitar 1 & 3
D#---------------------------------------------------------------|
A#---------------------------------------------------------------|
F#---------------------------------5---5---5---5---5---5---5---5-|
C#-2---2---2---2---0---0---0---0---5---5---5---5---5---5---5---5-|
G#-2---2---2---2---0---0---0---0---3---3---3---3---3---3---3---3-|
C#-2---2---2---2---0---0---0---0---------------------------------|

Guitar 2
D#-------------------------------------------------10----------10-|
A#-----12--10--12~~~---12--10----------12--10--12------12--10-----|
F#-----------------------------12~~~------------------------------|
C#----------------------------------------------------------------|
G#----------------------------------------------------------------|
C#----------------------------------------------------------------|

Guitar 1 & 3
D#---------------------------------------------------------------|
A#---------------------------------------------------------------|
F#---------------------------------------------------------------|
C#-5---5---5---5---5---5---5---5---0---0---0---0---0---0---1---1-|
G#-5---5---5---5---5---5---5---5---0---0---0---0---0---0---1---1-|
C#-5---5---5---5---5---5---5---5---0---0---0---0---0---0---1---1-|

Guitar 2
D#-------------10--13--13-13-----------------------------------------------|
A#-----12--10----------------13--13-12-10--10--------------------10--10-10-|
F#-12------------------------------------------12--11--11--12-12-----------|
C#-------------------------------------------------------------------------|
G#-------------------------------------------------------------------------|
C#-------------------------------------------------------------------------|

Guitar 1 & 3
D#---------------------------------------------------------------|
A#---------------------------------------------------------------|
F#---------------------------------5---5---5---5---5---5---5---5-|
C#-2---2---2---2---0---0---0---0---5---5---5---5---5---5---5---5-|
G#-2---2---2---2---0---0---0---0---3---3---3---3---3---3---3---3-|
C#-2---2---2---2---0---0---0---0---------------------------------|

Guitar 2
D#-------------------------------------------------10-------------|
A#-----12--10--12~~~---12--10----------12--10--12------12--10--12-|
F#-----------------------------12~~~------------------------------|
C#----------------------------------------------------------------|
G#----------------------------------------------------------------|
C#----------------------------------------------------------------|

Guitar 1 & 3
D#---------------------------------------------------------------|
A#---------------------------------------------------------------|
F#---------------------------------------------------------------|
C#-5---5---5---5---5---5---5---5---0---0---0---0---0---0---1---1-|
G#-5---5---5---5---5---5---5---5---0---0---0---0---0---0---1---1-|
C#-5---5---5---5---5---5---5---5---0---0---0---0---0---0---1---1-|

Guitar 2
D#-------------10----------------------------------------------------------|
A#-----12--10------10--10-10-13--13-12-10--10--------------------10--10-10-|
F#-12------------------------------------------12--11--11--12-12-----------|
C#-------------------------------------------------------------------------|
G#-------------------------------------------------------------------------|
C#-------------------------------------------------------------------------|

Guitar 1 & 3
D#-----------------------------------------------------------------------|
A#-----------------------------------------------------------------------|
F#---------------------------------------------5~~~~~~~~~~~~~~~~~~~~~~~~-|
C#-2---2---2---2---0---0---0---0---5---5-------5~~~~~~~~~~~~~~~~~~~~~~~~-|
G#-2---2---2---2---0---0---0---0---5---5-------3~~~~~~~~~~~~~~~~~~~~~~~~-|
C#-2---2---2---2---0---0---0---0---5---5---------------------------------|

Guitar 2
D#-----------------------------------------------------------------------|
A#-----12--10--12~~~---12--10----------10--12--13~~~~~~~~~~~~~~~~~~~~~~~-|
F#-----------------------------12~~~-------------------------------------|
C#-----------------------------------------------------------------------|
G#-----------------------------------------------------------------------|
C#-----------------------------------------------------------------------|

Bridge

Guitar 1
D#------------------------------------------------|
A#------------------------------------------------|
F#------------------------------------------------|
C#------------------------------------------------|
G#------------------------------------------------|
C#-5--5--5--5--5--5--5--5--0--0--0--0--0--0--1--1-|
pm .  .  .  .  .  .  .  .  .  .  .  .  .  .  .  .

Guitar 2
D#-------------------------------------------------|
A#-12-12-12-12-12-12-12-12-10-10-10-10-10-10-10-10-|
F#-12-12-12-12-12-12-12-12-12-12-12-12-11-11-11-11-|
C#-------------------------------------------------|
G#-------------------------------------------------|
C#-------------------------------------------------|

Guitar 1
D#------------------------------------------------|
A#------------------------------------------------|
F#-------------------------5--5--5--5--5--5--5--5-|
C#-------------------------5--5--5--5--5--5--5--5-|
G#-------------------------3--3--3--3--3--3--3--3-|
C#-2--2--2--2--2--2--2--2-------------------------|
pm .  .  .  .  .  .  .  .     .  .  .  .  .


Guitar 2
D#-13-13-13-13-13-13-13-13-------------------------|
A#-x--x--x--x--x--x--x--x--13-13-13-13-13-13-13-13-|
F#-9--9--9--9--9--9--9--9--x--x--x--x--x--x--x--x--|
C#-------------------------12-12-12-12-12-12-12-12-|
G#-------------------------------------------------|
C#-------------------------------------------------|

Guitar 1
D#------------------------------------------------|
A#------------------------------------------------|
F#------------------------------------------------|
C#-5--5--5--5--5--5--5--5--0--0--0--0--0--0--1--1-|
G#-5--5--5--5--5--5--5--5--0--0--0--0--0--0--1--1-|
C#-5--5--5--5--5--5--5--5--0--0--0--0--0--0--1--1-|


Guitar 2
D#-------------------------------------------------|
A#----------------------------------------13-13-13-|
F#-12-12-12-12-12-14-14-14-14-14-14-14-14----------|
C#-------------------------------------------------|
G#-------------------------------------------------|
C#-------------------------------------------------|

Guitar 3
D#-------------------------------------------------|
A#-------------------------------------------------|
F#-12-12-12-12-12-12-12-12-11-11-11-11-11-11-11-11-|
C#-------------------------------------------------|
G#-------------------------------------------------|
C#-------------------------------------------------|

Guitar 1
D#------------------------------------------------|
A#------------------------------------------------|
F#-------------------------5--5--5--5--5--5--5--5-|
C#-2--2--2--2--2--2--2--2--5--5--5--5--5--5--5--5-|
G#-2--2--2--2--2--2--2--2--3--3--3--3--3--3--3--3-|
C#-2--2--2--2--2--2--2--2-------------------------|

Guitar 2
D#-------------------------------------------------|
A#-------------------------13-13-13-13-13-12-12-12-|
F#-12-12-12-12-12-14-14-14-------------------------|
C#-------------------------------------------------|
G#-------------------------------------------------|
C#-------------------------------------------------|

Guitar 3
D#-------------------------------------------------|
A#-------------------------------------------------|
F#-9--9--9--9--9--9--9--9--------------------------|
C#-------------------------12-12-12-12-12-12-12-12-|
G#-------------------------------------------------|
C#-------------------------------------------------|

Guitar 1
D#------------------------------------------------|
A#------------------------------------------------|
F#------------------------------------------------|
C#-5--5--5--5--5--5--5--5--0--0--0--0--0--0--1--1-|
G#-5--5--5--5--5--5--5--5--0--0--0--0--0--0--1--1-|
C#-5--5--5--5--5--5--5--5--0--0--0--0--0--0--1--1-|


Guitar 2
D#-------------------------------------------------|
A#----------------------------------------13-13-13-|
F#-12-12-12-12-12-14-14-14-14-14-14-14-14----------|
C#-------------------------------------------------|
G#-------------------------------------------------|
C#-------------------------------------------------|

Guitar 3
D#-------------------------------------------------|
A#-------------------------------------------------|
F#-12-12-12-12-12-12-12-12-11-11-11-11-11-11-11-11-|
C#-------------------------------------------------|
G#-------------------------------------------------|
C#-------------------------------------------------|

Guitar 1
D#------------------------------------------------|
A#------------------------------------------------|
F#-------------------------5--5--5--5--5--5--5--5-|
C#-2--2--2--2--2--2--2--2--5--5--5--5--5--5--5--5-|
G#-2--2--2--2--2--2--2--2--3--3--3--3--3--3--3--3-|
C#-2--2--2--2--2--2--2--2-------------------------|

Guitar 2
D#-------------------------------------------------|
A#-------------------------13-13-13-13-13-12-12-12-|
F#-12-12-12-12-12-14-14-14-------------------------|
C#-------------------------------------------------|
G#-------------------------------------------------|
C#-------------------------------------------------|

Guitar 3
D#-------------------------------------------------|
A#-------------------------------------------------|
F#-9--9--9--9--9--9--9--9--------------------------|
C#-------------------------12-12-12-12-12-12-12-12-|
G#-------------------------------------------------|
C#-------------------------------------------------|

Outro

Guitar 1 & 3
D#--------------------------------------------------------------|
A#--------------------------------------------------------------|
F#------------------------------------------5~~~~~~~~~~~~~~~~~~-|
C#-2--2--x--x---x--0--0--x--x---x--5--5-----5~~~~~~~~~~~~~~~~~~-|
G#-2--2--x--x---x--0--0--x--x---x--5--5-----3~~~~~~~~~~~~~~~~~~-|
C#-2--2--x--x---x--0--0--x--x---x--5--5-------------------------|

Guitar 2
D#--------------------------------------------------------------|
A#--------------------------------------------------------------|
F#-11-12-----------12-14-----------11-12-11--5~~~~~~~~~~~~~~~~~-|
C#-------x--x---x--------x--x---x------------5~~~~~~~~~~~~~~~~~-|
G#-------x--x---x--------x--x---x------------3~~~~~~~~~~~~~~~~~-|
C#-------x--x---x--------x--x---x-------------------------------|

Tab Legend
h  -  hammer-on
p  -  pull-off
/  -  slide up
\  -  slide down
ps/-  pickslide up
ps\-  pickslide down
~  -  let ring
pm.-  palm mute
b  -  bend
r  -  return from bend
*  -  harmonic
x  -  dead note

There you have it. This might not have been one of my best tabs but hey, I gave it a 
I might work on the guitar pro for the CHORUS, so if you would want to know what I think it 
like just ask me for the guitar pro for Give Me A Sign Chorus to my email. Oh and 
on last thing... ROCK OUT!!!!
Tap to rate this tab
# A B C D E F G H I J K L M N O P Q R S T U V W X Y Z