Song name
# A B C D E F G H I J K L M N O P Q R S T U V W X Y Z

Breaking Benjamin - Wish I May tab

Breaking Benjamin
Wish I May
Drop D#
D# A# D# G# B# E#
Legend
/=slide
*=pinch harmonic
+=harmonic
~=vibrato
b=bend
x=strum mute strings
pm.=palm mute
rb=return bend
\=slide down

INTRO
E------------------------------------------------|
B------------------------------------------------|
G-----1211-78-----14-15-14-----1211-78-----7-5-7-|
D------X-X-XX------X--X--X------X-X-XX-----X-X-X-| PLAY TWICE
A-----10-9-56-----12/13/12-----10-9-56-----5/3/5-|
E-000--------000----------000--------000---------|

E-------------------------------|
B-------------------------------|
G---------------10\-------8-8-8-|
D-000000-000000010\-00000-8-8-8-|
A-000000-0000000-8\-00000-6-6-6-|
E-000000-0000000----00000-------|

VERSE
E-----------------------------------------------|
B-----------------------------------------------|
G-----------------------------------------------|
D-000000-0000000-000000-0000000-0000000-0000000-|
A-000000-0000000-000000-0000000-0000000-0000000-|
E-000000-0000000-000000-0000000-0000000-0000000-|

PRE-CHORUS
E--------------------------------------------|
B--------------------------------------------|
G--------------------------------------------|
D-12/55-5-55-0-11-1-11-0-55-5-55-0-11-1-11-0-|
A-12/55-5-55-0-11-1-11-0-55-5-55-0-11-1-11-0-|
E-12/55-5-55-0-11-1-11-0-55-5-55-0-11-1-11-0-|


E-----------------------------------------------------------------------------|
B-----------------------------------------------------------------------------|
G-22-2-22-0---------22-2-22-------------55-5-55-------------55-5-55-----------|
D-22-2-22-0-11-1-11-22-2-22-0-11-1-11-0-55-5-55-0-11-1-11-0-55-5-55-0-11-1-11-|
A-11-1-11-0-11-1-11-11-1-11-0-11-1-11-0-33-3-33-0-11-1-11-0-33-3-33-0-11-1-11-|
E---------0-11-1-11---------0-11-1-11-0---------0-11-1-11-0---------0-11-1-11-|

INTRO:PLAY FIRST PART ONCE
VERSE
PRE-CHORUS
CHORUS: TWICE
SOLO
E-------------------------------------------------|
B-------------------------------------------------|
G-------------------------------------------------|
D-0h3h5--3-0h3/7---7b-rb--0h3h5-------------------|
A-------------------------------oh3h5-6-6-6-*6-*5-|
E

E-10--8--6-5--3-1----------------------|
B-11-10--8-6--4-3--1-3-4-3-1-3----b-rb-|
G--------------------------------------|
D--------------------------------------|
A--------------------------------------|
E--------------------------------------|


CHORUS: TWICE
INTRO:PLAY FIRST PART ONCE

END ON
E---------|          |E--------------|
B---------|          |B--------------|
G-8-8-8-7-|          |G-4-4-4--------|
D-5-5-5-4-|INSTEAD OF|D-4-4-4-000000-|
A-6-6-6-5-|          |A-6-6-6-000000-|
E---------|          |E-------000000-|
Tap to rate this tab
# A B C D E F G H I J K L M N O P Q R S T U V W X Y Z