Song name
# A B C D E F G H I J K L M N O P Q R S T U V W X Y Z

Breaking Benjamin - Give Me A Sign tab

Slightly copied the lead of the bridge from another tab. 
Just Trying to help with my view of the fingerings that 
breaking benjamin actually uses and some other random 
touchups. 
email anything pertaining to this tab to myperuba@yahoo.com

Guitar 1

Intro
Eb|------------------------------------------------------------------------|
Bb|------------------------------------------------------------------------|
Gb|-4---4--4--2-2--2---2---2--2-2-x4---5---5---5---5-----------------------| 
Db|-2---2--2--0-0--0---2---2--2-2-x4---5---5---5---5---5---5---0-----------|
Ab|-2---2--2--0-0--0---0---0--0-0-x2---3---3---3---3---5---5---0-----------|
Db|-2---2--2--0-0--0-----------------------------------5---5---0---0h4/5p4-|

Verse   Strum
Eb|-3-------(2)------0-------0----|
Bb|-3--------0-------1-------1----|
Gb|-0--------4-------2-------0----| X2
Db|-0--------4-------2-------2----|
Ab|-x--------2-------0-------3----|
Db|-5-----------------------------|

Chorus 2x
Eb|---------------------------------------------------------------|
Bb|---------------------------------------------------------------|
Gb|-9---9---9---9---2---2---2---2---5-------5----5---5-5---5--5-5-|
Db|-9---9---9---9---0---0---0---0---5-------5----5---5-5---5--5-5-|
Ab|-7---7---7---7---0---0---0---0---3-------3----3---3-3---3--3-3-|
Db|-----------------0---0---0---0---------------------------------|

Eb|---------------------------------------------------------------|
Bb|---------------------------------------------------------------|
Gb|-7-------7----7---7-7---7--7-7---2-------2----2---2-2----8-----|
Db|-5-------5----5---5-5---5--5-5---0-------0----0---0-0----8-----|
Ab|-5-------5----5---5-5---5--5-5---0-------0----0---0-0----6-----|
Db|-5-------5----5---5-5---5--5-5---0-------0----0---0-0----------|

Post Chorus
Eb|---------------------------------------------------------------|
Bb|---------------------------------------------------------------|
Gb|-9---9---9---9---7---7---7---7---7---7-------5----------5------|
Db|-9---9---9---9---7---7---7---7---5---5-------5----------5------|
Ab|-7---7---7---7---5---5---5---5---5---5-------3----------3------|
Db|-----------------0---0---0---0---5---5-------------------------|

Eb|---------------------------------------------------------------|
Bb|---------------------------------------------------------------|
Gb|-7-------7----7---7-7---7--7-7---2-------2----2---2-2---2--2-2-| 
Db|-5-------5----5---5-5---5--5-5---0-------0----0---0-0---0--0-0-|
Ab|-5-------5----5---5-5---5--5-5---0-------0----0---0-0---0--0-0-|
Db|-5-------5----5---5-5---5--5-5---0-------0----0---0-0---0--0-0-|

Repeat Intro, Verse, Chorus

Interlude

Eb|-0----0-----0---0-0---------------------------------------|
Bb|-1----1-----1---1-1---------------------------------------|
Gb|-0----0-----0---0-0---------------------------------------|
Db|-2----2-----2---2-2----0-----2-----2---2---2-2------0-----|
Ab|-3----3-----3---3-3----0-----2-----2---2---2-2------0-----|
Db|-----------------------0-----2-----2---2---2-2------0-----|

Eb|-0----0-----0---0-0---0--0-0------------------------------|
Bb|-1----1-----1---1-1---1--1-1------------------------------|
Gb|-0----0-----0---0-0---0--0-0------------------------------|
Db|-2----2-----2---2-2---2--2-2-5---5-----0-----0-0---0--0-0-|
Ab|-3----3-----3---3-3---3--3-3-5---5-----0-----0-0---0--0-0-|
Db|-----------------------------5---5-----0-----0-0---0--0-0-|

Eb|-0----0-----0---0-0---------------------------------------|
Bb|-1----1-----1---1-1---------------------------------------|
Gb|-0----0-----0---0-0---------------------------------------|
Db|-2----2-----2---2-2----0-----2-----2---2---2-2------0-----|
Ab|-3----3-----3---3-3----0-----2-----2---2---2-2------0-----|
Db|-----------------------0-----2-----2---2---2-2------0-----|

Eb|-0----0-----0---0-0---0--0-0------------------------------|
Bb|-1----1-----1---1-1---1--1-1------------------------------|
Gb|-0----0-----0---0-0---0--0-0------------------------------|
Db|-2----2-----2---2-2---2--2-2-5---5-----0-----0-0---0--0-0-|
Ab|-3----3-----3---3-3---3--3-3-5---5-----0-----0-0---0--0-0-|
Db|-----------------------------5---5-----0-----0-0---0--0-0-|

Eb|-0------------------------------------|
Bb|-1------------------------------------|
Gb|-0------------------------------------|
Db|-2-------------------------x--x--x--x-|
Ab|-3-------------------------x--x--x--x-|
Db|---------------------------x--x--x--x-|

Bridge

Eb|------------------------------------------------|
Bb|------------------------------------------------|
Gb|------------------------------------------------|
Db|-------------------------------------------8--8-|
Ab|-5--5--5--5--5--5--5--5--0--0--0--0--0--0--6--6-|
Db|-5--5--5--5--5--5--5--5--0--0--0--0--0--0-------|
pm .  .  .  .  .  .  .  .  .  .  .  .  .  .  .  .

Eb|------------------------------------------------|
Bb|------------------------------------------------|
Gb|-------------------------5--5--5--5--5--5--5--5-|
Db|-9--9--9--9--9--9--9--9--5--5--5--5--5--5--5--5-|
Ab|-7--7--7--7--7--7--7--7--3--3--3--3--3--3--3--3-|
Db|------------------------------------------------|
pm .  .  .  .  .  .  .  .     .  .  .  .  .

Next Part 2x

Eb|------------------------------------------------|
Bb|------------------------------------------------|
Gb|-7--7--7--7--7--7--7--7--------------------8--8-|
Db|-5--5--5--5--5--5--5--5--0--0--0--0--0--0--8--8-|
Ab|-5--5--5--5--5--5--5--5--0--0--0--0--0--0--6--6-|
Db|-5--5--5--5--5--5--5--5--0--0--0--0--0--0-------|

Eb|------------------------------------------------|
Bb|------------------------------------------------|
Gb|-9--9--9--9--9--9--9--9--5--5--5--5--5--5--5--5-|
Db|-9--9--9--9--9--9--9--9--5--5--5--5--5--5--5--5-|
Ab|-7--7--7--7--7--7--7--7--3--3--3--3--3--3--3--3-|
Db|------------------------------------------------|

Outro
Eb|-----------------------------------------0-------------------|
Bb|-----------------------------------------1-------------------|
Gb|-9--9-----------7--7---------------------0-------------------|
Db|-9--9--x-x-x-x--7--7--x--x---x--5--5-----2-------------------|
Ab|-7--7--x-x-x-x--5--5--x--x---x--5--5-----3-------------------|
Db|-------x-x-x-x--0--0--x--x---x--5--5-------------------------|





Guitar 2

Intro
Eb|-------------------------------------------|--------------------------------------------------|
Bb|-------------------------------------------|--------------------------------------------------|
Gb|--9---11-12------11-12-----------9------11-|-12---------9--------------11-12------12-11----12~|
Db|----9-------12-9-------10---12-------------|----10-9-10---10-9-10----9----------9-------------|
Ab|-------------------------------------------|----------------------10---------10---------------|
Db|-------------------------------------------|--------------------------------------------------|

VERSE 1

Rest Four Bars

Guitar 2
Eb|--------------------------------------------------3---------------------------|
Bb|------8------------------------5--------------1-------------------5-------7-8-|
Gb|-------------7--------------0-------------4--------------------5-------5------|
Db|----------5-------------4-----------------------------------5-----------------|
Ab|-------------------(2)----------------0------------------3-----------3--------|
Db|---5--------------------------------------------------------------------------|

Chorus Play 2x

Eb|-------------------------------------------------------------10--|
Bb|------12--10--12-----12-10----------12--10--12--13--12--10-------|
Gb|----------------------------12-----------------------------------|
Db|--pm----------------------------pm-------------------------------|
Ab|--10-------------pm-------------10-------------------------------|
Db|-----------------12----------------------------------------------|

Eb|-----------------------------------------------------------------|
Bb|-8-8-8-8-10101010-12121212-13131313-10101010-8888-7777-10101010--|
Gb|-----------------------------------------------------------------|
Db|-5-5-5-5-7-7-7-7--9-9-9-9--10101010-7-7-7-7--5555-4444-7-7-7-7---|
Ab|-----------------------------------------------------------------|
Db|-----------------------------------------------------------------|

Post Chorus

Eb|-----------------------------------------------------------------|
Bb|------12--10--12-----12-10-------10-12---------------------------|
Gb|---------------------------11-12--------12-----------------------|
Db|--pm-------------------------------------------------------------|
Ab|--10-------------pm----------------------------------------------|
Db|-----------------12----------------------------------------------|

Eb|-----------------------------------------------------------------|
Bb|---------------------------------------------------10------------|
Gb|------12--11--12------12---11-12------12--11--12-------12--11----|
Db|--------------------------------------------------------------12-|
Ab|--10-------------------------------------------------------------|
Db|----------------------------------10-----------------------------|

Repeat Intro

Verse 2

Eb|------------------------------------------------------------------------------|
Bb|------8------------------------3------------------1---------------3-----------|
Gb|-------------7--------------0-----------------0----------------5-----------0--|
Db|----------5-------------4-----------------2-----------------5-----------------|
Ab|---------------------2----------------0------------------3--------------------|
Db|---5--------------------------------------------------------------------------|

Eb|--------------------------------------------------3---------------------------|
Bb|------8------------------------5--------------1-------------------5-------7-8-|
Gb|------------7--------------0----------------------------------5--------5------|
Db|----------5-------------4-----------------2-----------------5-----------------|
Ab|--------------------(2)---------------0------------------3----------3---------|
Db|---5--------------------------------------------------------------------------|

Repeat Chorus

Bridge  Repeat 2x

Eb|------7---5---7------7---5----------7----5---7-------7---5---10--|
Bb|-----------------------------8-----------------------------------|
Gb|-----------------------------------------------------------------|
Db|---5--------------5--------------2--------------2----------------|
Ab|-----------------------------------------------------------------|
Db|-----------------------------------------------------------------|

Eb|------7---5---7------7---5----------5----7---5-------------------|
Bb|----------------------------8---8--------------------------------|
Gb|----------------------------------------------------8--7---8-7-5-|
Db|---5--------------5--------------------------------------------^-|
Ab|---------------------------------------------------------------^-|
Db|--------------------------------------------End Note Second Time-|

Guitar 3 Harmony Part Second Time Through
Eb|-----------------------------------------------------------------|
Bb|------8---7---8------8---7----------8---7---8-------8---7---12---|
Gb|---7--------------7----------9---4--------------5----------------|
Db|-----------------------------------------------------------------|
Ab|-----------------------------------------------------------------|
Db|-----------------------------------------------------------------|

Eb|-----------------------------------------------------------------|
Bb|------8---7---8------8---7----------7---8---7--------------------|
Gb|---7--------------7----------9---9-------------------------------|
Db|-----------------------------------------------------------------|
Ab|-----------------------------------------------------------------|
Db|-----------------------------------------------------------------|

Repeat Chorus 

Outro 

Eb|-7-7-7-7-7-7-7-7--5-5-5-5-5-5-5-5--12-12-12-12-12-12-12-12--8-8-8-8-8-7-7-5--|
Bb|-8-8-8-8-8-8-8-8--8-8-8-8-8-7-7-7--12-12-12-12-12-12-12-12--8-8-8-8-8-8-8-8--|
Gb|-----------------------------------------------------------------------------|
Db|-----------------------------------------------------------------------------|
Ab|-----------------------------------------------------------------------------|
Db|-----------------------------------------------------------------------------|

Eb|-7-7-7-7-7-7-7-7--5-5-5-5-5-8-8-8--3-3-3-3-3-5-5-5---8-8-810-8-7-7-5---------|
Bb|-8-8-8-8-8-8-8-8--7-7-7-7-7-7-7-7--5-5-5-5-5-5-5-5---8-8-8-8-8-8-8-8---------|
Gb|-----------------------------------------------------------------------------|
Db|-----------------------------------------------------------------------------|
Ab|-----------------------------------------------------------------------------|
Db|-----------------------------------------------------------------------------|

Eb|-7-7-7-7-7-5-5-5--5-5-5-5-5-8-8-8--3-3-3-3-3-5-5-5---8-8-810-8-7-7-5---------|
Bb|-8-8-8-8-8-8-8-8--7-7-7-7-7-7-7-7--5-5-5-5-5-5-5-5---8-8-8-8-8-8-8-8---------|
Gb|-----------------------------------------------------------------------------|
Db|-----------------------------------------------------------------------------|
Ab|-----------------------------------------------------------------------------|
Db|-----------------------------------------------------------------------------|

Eb|----------------------------|
Bb|----------------------8-3-5-|
Gb|-----xxxx-----------0-------|
Db|-5-5-xxxx-7-7-xx-x----------|
Ab|-----xxxx-----xx-x----------|
Db|--------------xx-x----------|a
Tap to rate this tab
 
# A B C D E F G H I J K L M N O P Q R S T U V W X Y Z