Song name
# A B C D E F G H I J K L M N O P Q R S T U V W X Y Z

Breaking Benjamin - Breakdown tab

E|-|---------------------------------------------------|-|
B|-|--11-10-11-10--------------12----------------------|-|
G|-|--------------9-9-8-8-7----------------------------|-|
D|-|---------------------------------------------------|-|  2times/vcs	
A|-|---------------------------------------------------|-|
e|-|---------------------------------------------------|-|
 
                      Or/ O

E|-|---------------------------------------------------|-|
B|-|--11-10-11-10--------------12----------------------|-|
G|-|--------------9-9p8-8p7----------------------------|-|
D|-|---------------------------------------------------|-|  2times/vcs	
A|-|---------------------------------------------------|-|
e|-|---------------------------------------------------|-|
Tap to rate this tab
 
# A B C D E F G H I J K L M N O P Q R S T U V W X Y Z