Song name
# A B C D E F G H I J K L M N O P Q R S T U V W X Y Z

Breaking Benjamin - Who Wants To Live Forever tab

Drop C

Verse 

D|---------------------------------------------------------------|
A|--------------------------------------------------------5------|
F|--7-------5-------7-------9-------5------7------5-------5------|
C|--8-------5-------8------10-------3------7------5-------x------|
G|--5-------3-------5-------7-------3------5------3-------3------|
C|--5---------------5-------7-------3------0---------------------|

Chorus
e|---------------------------------------------------------------|
B|---------------------------------------------------------------|
G|------------------7-------7---------------------7-------7------|
D|--8------10-------8-------8-------8-----10------8-------8------|
A|--8-------8-------5-------5-------8------8------5-------5------|
E|--8-------7-------5-------5-------8------7------5-------5------|

e|---------------------------------------------------------------|
B|------------------5--------------------------------------------|
G|--5---------------5--------------------------------------------|
D|--5---------------x--------------------------------------------|
A|--3---------------3--------------------------------------------|
E|---------------------------------------------------------------|

Bridge 

e|---------------------------------------------------------------------|
B|---------------------------------------------------------------------|
G|--7----------2h3p2p0-2--|3x------------------------------------------|
D|--0--------------------------------------------------------------8---|
A|--0------------------------------3--3--3----5--5--5----3--3--3---8---|
E|--0------------------------------3--3--3----5--5--5----3--3--3---8---|

e|---------------------------------------------------------------|
B|-PM---------PM-------------PM------PM--------11----------------|
G|-1010------1010-----10-----------------------10----------------|
D|-1010------1010-----10-----8-8-----8-8--------8----------------|
A|--8-8-------8-8------8-----8-8-----8-8--------8----------------|
E|---------------------------8-8-----8-8--------8----------------|

e|----------------------------------------------------------------------|
B|----------------------------------------------------------------------|
G|----------------------------------------------------------------------|
D|----------------------8-8-7-7-5-5-7-7-----7-7-5-5-----8-8-7-7-5-5-7-7-|
A|-------8-8-7-7------------------------5-5---------5-5-----------------|
E|-10-10---------10-10--------------------------------------------------|


Bridge/Chorus 2
e|---------------------------------------------------------------|
B|-------------------------------------------------------6-------|
G|----------------7------------7--------3----5-----2-6---7-------|
D|--3------5------7---3----5---7--------3----5-----2-6---7-------|
A|--3------3------5---3----3---5--------1----3-----0-4---5-------|
E|--3------2------0---3----2---0-------------------------0-------|




Guitar 2

Chorus

e|-----------------------------5-6-5-----------------------------|
B|------3--------1-----------8-------6----6----------5-----------|
G|----3---3----2---2-------7--------------5----------5-----------|
D|-----------------------5---------------------------------------|
A|--1--------0---------------------------------------------------|
E|---------------------5-----------------------------------------|

Verse 2

e|---------------------------------------6----------------------------|
B|--4-4-4-4-3-3-3-3-4-4-4-4-3-3-3-3--4-4--6-4-3-3-3-3-4-4-4-4-3-3-3-3-|
G|--5-5-5-5-5-5-5-5-5-5-5-5-3-3-3-3--5-5----5-5-5-5-5-5-5-5-5-3-3-3-3-|
D|--------------------------------------------------------------------|
A|--------------------------------------------------------------------|
E|--------------------------------------------------------------------|

Repeat Chorus

PostChorus

e|---------------------------------------------------------------|
B|-----------------------------------4-4-4-4--3------------------|
G|--5-5-3-3-5-5-5-5-\----------------5-5-5-5--3------------------|
D|--6-6-5-5-6-6-6-6-/--2x----------------------------------------|
A|---------------------------------------------------------------|
E|---------------------------------------------------------------|

Bridge

e|---------------------------------------------------------------|
B|-------------5p6------5-------------5p6-----5b6r5--------------|
G|--7-------------------------5p7------------------------5--5p7--|
D|--0----------------------7--------------------------7----------|
A|--0------------------------------------------------------------|
E|--0------------------------------------------------------------|

e|------------------------------------------------------------------------------|
B|-5-5-5p6---3-5-6--6-8--6p8/10----------------------------4b5v-----------------|
G|----------------------------------7-9b10r9b10r9b10r9-7\5------3-2-------------|
D|--------------------------------7----------------------------------5-3------8-|
A|-------------------------------PMPMPM----------------------------------1-0--8-|
E|----------------------------------------------------------------------------8-|

e|----------------------------------------------------------------------------|
B|----------------------------------------------------------------------------|
G|----------------------------------------------------------------------------|
D|------7-7-------------------------------------------------------------------| 2x
A|--8-8-----10-10-8-8-10-10-8-8-7-7-8-8-----8-8-7-7-----10-10-8-8-7-7-10-10---|
E|--------------------------------------8-8---------8-8-----------------------|

e|----------------------------------------------------------------------------|
B|----------------------------------------------------------------------------|
G|----------------------------------------------------------------------------|
D|------7-7-------------------------------------------------------------------| 2x
A|--8-8-----10-10-8-8-10-10-8-8-7-7-8-8-----8-8-7-7-----10-10-8-8-7-7-8-8-----|
E|--------------------------------------8-8---------8-8-----------------------|

Bridge/Chorus

C |------------------------------------------------------------|
G |------------------------------------------------------------|
G#|-10---12----14----10----12---14-----15-------17----14--2-6--|
A#|--x----x-----x-----x-----x----x------x--------x-----x--2-6--|
A |--8---10----12-----8----10---12-----13-------15----12--0-4--|
C |------------------------------------------------------------|

Chorus

C |-----------------------------------------------------|
G |------------------------12b14---14r12--10\9----------|
G#|-----------------------------------------------12b14-|
A#|-----------------------------------------------------|
A |-----------------------------------------------------|
C |-----------------------------------------------------|

C |--------------------------------------------------|
G |-----------------------------------------6---6--3-|
G#|--7-7-7-7-7-7-7-7-10101010--9-9--2---6---7--------|
A#|--x-x-x-x-x-x-x-x--x-x-x-x--x-x--2---6---7--------|
A |--5-5-5-5-5-5-5-5--8-8-8-8--7-7--0---4---5--------|
C |-----------------------------------------0--------|

Tap to rate this tab
 
# A B C D E F G H I J K L M N O P Q R S T U V W X Y Z