Song name
# A B C D E F G H I J K L M N O P Q R S T U V W X Y Z

Breaking Benjamin - So Cold tab

--------------------so cold, Breaking Benjamin------------------------------
    Tabbed By:haloreach1fan                     Email:bdkirk@comcast.net
Intro
            Guitar 1
D|---------------------------------------|
A|---------------------------------------|
F|---------------------------------------|
C|----------3----------------8-----6-----|
G|----5---5-5-------10---10-10-----8-----|
C|-0----0---------0----0-----------------|
  |----------------x2-------------------|

Verse

D|----10----------10-----------------10------------10--------------|
A|------10--13------10-10h13-10--------10-10h13------10-10h13-10---|
F|-----------------------------12-------------------------------12-|
C|-----------------------------------------------------------------|
G|-----------------------------------------------------------------|
C|-0---------------------------------------------------------------|

D|----10----------10-----------------10----------10----------12----|
A|------10--13------10-10h13-10--------10--13------10--13--10------|
F|-----------------------------12----------------------------------|
C|-----------------------------------------------------------------|
G|-----------------------------------------------------------------|
C|-----------------------------------------------------------------|

D|10---------------10----------12--10---------------10----------12-|
A|--10-10h13-10------10--13--10------10-10h13-10------10--13--10---|
F|-------------12-------------------------------12-----------------|
C|-----------------------------------------------------------------|
G|-----------------------------------------------------------------|
C|-----------------------------------------------------------------|

Pre Chorus

D|-------------------------|---------------------|
A|-10-10-8-8-11-11-10-10-6-|-10-10-8-8-6-6-5-5-3-|
F|-------------------------|---------------------|
C|-------------------------|---------------------|
G|-------------------------|---------------------|
C|-------------------------|---------------------|
  |----------x3-----------|
  |------------------------x2-------------------|

D|------------------------------------------------------------------|
A|10-10-8-8-11-11-10-10-6-10-10-8-8-11-11-10-10-10-8-8-11-11-10-10-6|
F|------------------------------------------------------------------|
C|------------------------------------------------------------------|
G|------------------------------------------------------------------|
C|------------------------------------------------------------------|

Chorus

D|----------------------------------------------|-------------------|
A|----------------------------------------------|-------------------|
F|----------------------------------------------|-------------------|
C|-8---8-8---8---8-8-------------------------5--|-7--8--8-8---8--8-8|
G|-8---8-8---8---8-8--0-0---0-0---0-0---0-0--5--|-7--8--8-8---8--8-8|
C|-8---8-8---8---8-8--0-0---0-0---0-0---0-0--5--|-7--8--8-8---8--8-8|
  |--------------------x2----------------------|

D|-----------------------------------------10-------------10--------12|
A|-------------------------------------------10-10h13-10----10-13-10--|
F|-----------------------------12-----------------------12------------|
C|-9999--10101010--11111111-12-12-8--8-8-8----------------------------|
G|-7777---8-8-8-8---9-9-9-9-10-10-8--8-8-8----------------------------|
C|--------------------------------8--8-8-8----------------------------|
                                 |--x4--|
2 Verse

D|--------------------------------------------|
A|-10-10-8-8-11-11-10-10-6-10-10-8-8-6-6-5-5-3|
F|--------------------------------------------|
C|--------------------------------------------|
G|--------------------------------------------|
C|--------------------------------------------|

D|----------------------------------------------------------------|
A|-10-10-8-8-11-11-10-10-6-10-10-8-8-11-11-10-10-8-8-11-11-10-10-6|
F|----------------------------------------------------------------|
C|----------------------------------------------------------------|
G|----------------------------------------------------------------|
C|----------------------------------------------------------------|

D|----------------------------------------------------------------|
A|-10-10-8-8-6-6-5-5-3-10-10-8-8-11-11-10-10-6-10-10-8-8-11-11-10-|
F|----------------------------------------------------------------|
C|----------------------------------------------------------------|
G|----------------------------------------------------------------|
C|----------------------------------------------------------------|

D|-------------------------|
A|-10-10-8-8-11-11-10-10-6-|
F|-------------------------|
C|-------------------------|
G|-------------------------|
C|-------------------------|

Repeat chorus
Solo
D|------------------------------------------|
A|------------------------------------------|
F|------------------------------------------|
C|------------------------------------------|
G|-------5------------5-------5------8-6-4-5|
C|-0-1-3---0--1--3--5---0-1-3---8-6-8-------|
  |-------------------x2--------------------|

D|--------------------------------------------------------b16b16-13|
A|------------------10p8p5-8-8p6p4-6-8-10-11-12-15-b16-16----------|
F|-7~7~7~7~7~7~7~7~------------------------------------------------|
C|-5~5~5~5~5~5~5~5~------------------------------------------------|
G|-----------------------------------------------------------------|
C|-----------------------------------------------------------------|

Did not get rest of solo.

repeat chorus
Outro
D|--------------------------------------------------------------|
A|----------------------10x10x10x10x8x-10x10x10x10x8x-----------|
F|-9x9x9x9x7x-9x9x9x9x7x----------------------------------------|
C|--------------------------------------------------------------|
G|----------------------------------------------------0-0--0-0-5|
C|----------------------------------------------------0-0--0-0-5|
                                                     |----x4----|

D|----------------|
A|----------------|
F|-7-10-7-9-------|
C|----------------|
G|----------0-7-5-|
C|----------0-7-5-|
  |--x3----|
End


b-bend
h-hammer
x-palm mute
~-vibrado
x2-mutiple times
Tap to rate this tab
 
# A B C D E F G H I J K L M N O P Q R S T U V W X Y Z